Happy Birthday Uke tab by Traditional

Ukulele Tab without chords.

Add tab to your SongBook
Tablature / ChordsFont size: A- A A+

Don't know how to read a tab or a chord ? Check out these uke lessons:

Detailed guide to strumming and picking
How to read uke tabs
Reading chord diagrams

Very easy:

A-------0--3-2------0--5-3-------
E-------0-----------0----0-------
C-------0-----------0----0-------
G---0-0-0-0-----0-0-0-0--0-------

A------10-7-3-2-0---8-8-7-3-5-3--
E---------0---1---------0-----0--
C---------0---0---------0-----0--
G---0-0---0---0---------0-----0--

 

Tab comments (3)
You must be logged in to join the discussion
or Register

 

KalaKiwi avatar
flag for PH(ISO2) (Pasig City)
Very good version
18 May 2017
 avatar
flag for (ISO2)
Sounds Great!!!
19 Nov 2014
Bkates avatar
flag for US(ISO2) (Portland)
Nice rendition, plays well and quickly learned
16 Jan 2013
About this song

No information about this song.