Happy Birthday Uke tab by Traditional

Ukulele Tab without chords.

Add tab to your SongBook
Tablature / ChordsFont size: A- A A+

Don't know how to read a tab or a chord ? Check out these uke lessons:

Detailed guide to strumming and picking
How to read uke tabs
Reading chord diagrams

|-0-0-2--0--5--4--0-0-2--0--7--5--0-0-12---9--5-5--4--2-|
|-2-2-2--2--2--0--0-0-0--0--5--2--2-2-10--10--5-5--3--3-|
|-2-2-2--2--2--1--1-1-1--1--4--2--2-2--9---9--6-6--2--2-|
|-2-2-2--2--2--2--2-2-2--2--6--2--2-2-11--11--7-7--0--0-|

|10-10---9--5--7--5-------------------------------------|
|-7--7--10--5--5--2-------------------------------------|
|-7--7---9--6--4--2-------------------------------------|
|-7--7--11--7--6--2-------------------------------------|

 

Tab comments (5)
You must be logged in to join the discussion
or Register

 

 avatar
flag for (ISO2)
Sounds Great. A little difficult.
19 Nov 2014
hassellopf avatar
flag for DE(ISO2) (67473 Lindenberg)
This Tab may be for advanced players but it sounds really nice. Yeah chord names whatever, it works, that's the important thing.
09 Jul 2013
purpleuke avatar
maybe yu cant read tabs??
08 May 2011
JDNafz avatar
flag for US(ISO2) (Goshen)
This is a good tab except for the tab format. Using Chord names would be easier.
16 Jul 2010
xiggy avatar
works fine for me !!
30 May 2010
About this song

No information about this song.