Er Is Een Kindeke Uke tab by Traditional

Ukulele Tab without chords.

Add tab to your SongBook
Tablature / ChordsFont size: A- A A+

Don't know how to read a tab or a chord ? Check out these uke lessons:

Detailed guide to strumming and picking
How to read uke tabs
Reading chord diagrams

Er is een kindeke geboren op aard'
A------------------------------------
E--0--3--1--0-0--0--3----------------
C------------------------------------
G----------------------4--4--6--4----

Er is een kindeke geboren op aard'
A------------------------------------
E--0--3--1--0-0--0--3----------------
C------------------------------------
G----------------------4--4--6--4----

't Kwam op de aarde voor ons allemaal
A---------------------------------
E--5-----5--3-----3--1--3--5------
C---------------------------------
G-----6--------4--------------4---

't Kwam op de aarde voor ons allemaal
A----------------------------------
E--5-----5--3-----3--1--3--1--0----
C----------------------------------
G-----6--------4-------------------

't Kwam op de aarde en 't had er geen huis
't Kwam op de aarde en 't had er geen huis
't Kwam op de aarde en 't droeg al zijn Kruis
't Kwam op de aarde en 't droeg al zijn Kruis

Er is een Kindeke geboren in 't strooi
Er is een Kindeke geboren in 't strooi
't Lag in een kribbe, bedekt met wat hooi
't Lag in een kribbe, bedekt met wat hooi

 

Tab comments (0)
No comment yet :(
Need help, a tip to share, or simply want to talk about this song? Start the discussion!

You must be logged in to join the discussion
or Register

 

About this song

No information about this song.