De Zak Van Sinterklaas Uke tab by Traditional

Ukulele Tab without chords.

Add tab to your SongBook
Tablature / ChordsFont size: A- A A+

Don't know how to read a tab or a chord ? Check out these uke lessons:

Detailed guide to strumming and picking
How to read uke tabs
Reading chord diagrams

A--5-5-5-------2-2---5-3-2-5-5-5-------2-2-2---5-3-----2-----5-2-2-5-3-3-5---2---
E--------0-2-3-----0-------------0-2-3-------0-----------------------------------
C--------------------------------------------------------------------------------
G--------------------------------------------------2-0---2-2---------------2-----

A--2----5-2-2-----------5-5-5-5-------2-2---5-3-2-5-5-5-------2-2-2---5-3---------
E-------------3-2-2-0-0---------0-2-3-----0-------------0-2-3-------0-------------
C---------------------------------------------------------------------------------
G---2-2-------------------------------------------------------------------2--0----

De zak van Sinterklaas,
Sinterklaas, Sinterklaas,
De zak van Sinterklaas,
o jongenens, jongens
het is zo`n baas!
Daar stopt hij, daar stopt hij,
daar stopt hij blij van zin.
De hele, de hele,
de hele wereld in!
De zak van Sinterklaas,
Sinterklaas, Sinterklaas,
De zak van Sinterklaas,
o jongenens, jongens
het is zo`n baas!

Hij is voor groot en klein,
groot en klein, groot en klein,
Hij is voor groot en klein
voorzien van taai en marsepein.
En bergen, en bergen,
En bergen suikergoed,
Zo lekker, zo lekker,
Zo lekker en zo zoet.
Hij is voor groot en klein,
groot en klein, groot en klein,
Hij is voor groot en klein
voorzien van taai en marsepein.

Maar onder in die zak,
in die zak, in die zak,
Maar onder in die zak
daar ligt het hele grote pak,
Voor het lieve, voor het zoete,
voor het lieve zoete kind.
Zeg was jij, zeg was jij,
dit jaar gehoorzaam vrind?
Maar onder in die zak,
in die zak, in die zak,
Maar onder in die zak
daar ligt het hele grote pak.

 

Tab comments (0)
No comment yet :(
Need help, a tip to share, or simply want to talk about this song? Start the discussion!

You must be logged in to join the discussion
or Register

 

About this song

No information about this song.