Dixie (melody) Uke tab by Traditional

Ukulele Tab without chords.

Add tab to your SongBook
Tablature / ChordsFont size: A- A A+

Don't know how to read a tab or a chord ? Check out these uke lessons:

Detailed guide to strumming and picking
How to read uke tabs
Reading chord diagrams

A-----------------------------------------------------7 9 11------
E-7--4--0--0--0-2-4-5-7--7--7--0-9--9--9--7--9-7-9-11-------------
C-----------------------------------------------------------------
G-----------------------------------------------------------------
______________________
| 1.
A-7-4-7---------------- || -----7--11--9--4-|-7--7--9--7--4--7-7-4
E--------7-4-7--2-4-0--.||.-7-7-------------|---------------------
C----------------------.||.-----------------|---------------------
G---------------------- || -----------------|---------------------
___________________________
| 2.
A-|-6--7--4------------------|----------------------7-------------
E-|----------7-4-7--4--4--2--|-4--0--4--2--5--4--7-----4-4-2------
C-|--------------------------|------------------------------------
G-|--------------------------|------------------------------------


A----------------------7--11--9--7--||
E-4--0--4--2--5--4--7---------------|| Ending Option
C-----------------------------------|| A
G-----------------------------------||

# Continue after A A and play this for Ending Option B B:

A-------------------------------------||
E-2-2-4-2--2-2-4-2--2-2-2-2-4-6-7-----||
C----------------------------------0--||
G-------------------------------------||

# This is my first time to tab so there may be a couple of errors in this.
# But, regardless all you need to do is listen to the song and you can
# figure the melody out.

 

Tab comments (0)
No comment yet :(
Need help, a tip to share, or simply want to talk about this song? Start the discussion!

You must be logged in to join the discussion
or Register

 

About this song

No information about this song.