Greensleves Uke tab by Traditional English

Ukulele Tab without chords.

9.3/10
PrintAdd tab to your SongBook

Tablature / Chords (

Font size: A- A A+

Album:  unknown
Key: unknownTablature (no chords)
||-0-3--5-7--8-7-5--2----0-2-3--0-0----0-2-----------|
||---0----0------3----3------0----0------0----0------|
||---0----0------2----2------0----0------2----2------|
||---2----0------4----0------2----2--1---1--1--------|

^
|-0-3--5-7--8-7-5--2----0-2-3--2-0--------0---------|
|---0----0------3----3------0------0--2---0---------|
|---0----0------2----2------0------2------0---------|
|---2----0------4----0------2------1----1-2---------|

|-10--10--9-7-5--2----0-2-3--0-0----0-2-------------|
|--0---0------3----3------0----0------0----0--------|
|--0---0------2----2------0----0------2----2--------|
|--0---0------4----0------2----2--1---1--1----------|

^
|-10--10--9-7-5--2----0-2-3--2-0--------0-----------||
|--0---0------3----3------0------0--2---0-----------||
|--0---0------2----2------0------2------0-----------||
|--0---0------4----0------2------1----1-2-----------||

Uke tab by , 26 May 2010

Tab comments (1)

Something to say?
Share your strumming patterns, chords or tips to play this tab! ;)
Filter by:
DavidDhani avatar
flag for CA(ISO2) (Ottawa)
alot better than mine
27 May 2010
Comment

Top Tabs & Chords by Traditional English, don't miss these songs!

About this song: Greensleves

No information about this song.

Did you cover Greensleves on your Ukulele? Share your work!
Submit a cover