Tetris Uke tab by Themes

Ukulele Tab without chords.

9.6/10
PrintAdd tab to your SongBook

Tablature / Chords (Simplified Song)

Font size: A- A A+

Artist: 
Year:  2015
Key: unknownTablature (no chords)
This version is pretty easy to play.
A--7--2-3-5--3-2-0--0-3-7--5-3-2--3-5-7-3-0-0--
E----------------------------------------------
C----------------------------------------------
G----------------------------------------------

A--5--8-12--10-8-7--3-7--5-3-2--3-5--7-3-0-0---
E----------------------------------------------
C----------------------------------------------
G----------------------------------------------

A--7-7-7-7--3-3-3-3--5-5-5-5--2-2-2-2--3-3-3-3-
E----------------------------------------------
C----------------------------------------------
G----------------------------------------------

A--0-0-0-0-----------2-2-2-2---7-7-7-7--3-3-3-3
E-----------4-4-4-4----------------------------
C----------------------------------------------
G----------------------------------------------

A--5-5-5-5--3-3-3-3--0-3-7-12-11---------------
E----------------------------------------------
C----------------------------------------------
G----------------------------------------------
and repeat as many times as you like.

And for reference, you should play the entire thing pretty fast.

⇢ Not happy with this tab? View 3 other version(s)

Uke tab by , 14 Mar 2010

Tab comments (2)

Something to say?
Share your strumming patterns, chords or tips to play this tab! ;)
Filter by:
blacksn0w avatar
Perfect, i love it ;)
13 Oct 2010
Comment
Jurzinof avatar
Nice, thanks
14 Mar 2010
Comment

Top Tabs & Chords by Themes, don't miss these songs!

About this song: Tetris

No information about this song.

Did you cover Tetris on your Ukulele? Share your work!
Submit a cover