He Is A Pirate (Pirates Of The Caribbean) Uke tab by Themes

Ukulele Tab without chords.

7.3/10
PrintAdd tab to your SongBook

Tablature / Chords (Full Song)

Font size: A- A A+

Artist: 
Album:  unknown
Difficulty: 
1
(Beginner)
Key: C, F, G, Dm, Am, Em, Tablature (no chords)
(C C,G G,E E,A A)

PART 1
|------------------------------------|
|-------------5-6-6-6-8-5-5----------|
|--2\5--7-7-7---------------7-5-5h7--|
|------------------------------------|


|--------------------------------|
|------------5-6-6-6-8-5-5-------|
|--7-5-7-7-7---------------7-5-7-|
|--------------------------------|


|--------------------5-6-6-5---5---|------------5---|----------------|
|------------6-8-8-8---------8-----|----5-6-6-8-----|----6-5-5-------|
|--7-5-7-7-7---------------------7-|--7-----------7-|--7-------7-5-7-|
|----------------------------------|----------------|----------------|

PART 2

|------------------------------------|
|-------------5-6-6-6-8-5-5----------|
|--2\5--7-7-7---------------7-5-5h7--|
|------------------------------------|


|--------------------------------|
|------------5-6-6-6-8-5-5-------|
|--7-5-7-7-7---------------7-5-7-|
|--------------------------------|


|--------------------5-6-6-5---5---|------------5---|
|------------6-8-8-8---------8-----|----5-6-6-8-----|
|--7-5-7-7-7---------------------7-|--7-----------7-|
|----------------------------------|----------------|


|-----------------------------5-------6---------------|
|----6-5-5---------4/5--6-6-8---6-------6-------------|
|--7-------7-5-7-7----------------7-7-----7-----------|
|-------------------------------------------8-7-7-8-7-|

PART 3


|-----------------|-------------|-----------------|-----------|
|--10-10-10-11-10-|--8-8-8-8-10-|--10-10-10-11-10-|--5/8-6-5-3|
|--10-10-10-10-10-|--9-9-9-9-9--|--10-10-10-10-10-|--6/9-7----|
|-----------------|-------------|-----------------|-----------|



|-------------------------------|-------------------------------|
|---------8-10-8---------8-10-8-|-----8-10-8--------------------|
|--7-9-10--------10-9-10--------|--10--------10-9-10-9-7-9-10-7-|
|-------------------------------|-------------------------------|



|-------------------------------|-------------------------------|
|--------------8----8-10-8------|---------8-10-11---8-----------|
|--7-9-10-9-10---10--------10-7-|--7-9-10---------7---10-9-10-7-|
|-------------------------------|-------------------------------|



|---------------------------------|
|--10-11-10-10-10-10/8-8-6-5-6-5-3|
|--10-10-10-10-10-10--------------| X2
|---------------------------------|


|------------|------------|---------------8------|--------------|
|---------10-|---------11-|---------10-10---10-8-|--8-6-5-6-5-3-|
|--7-9-10----|--7-9-10----|--7-9-10--------------|--------------|
|------------|------------|----------------------|--------------| X2

⇢ Not happy with this tab? View 1 other version(s)

Uke tab by , 18 Jul 2011

Tab comments (2)

Something to say?
Share your strumming patterns, chords or tips to play this tab! ;)
Filter by:
Biiiaa avatar
same :)))
29 Sep 2019
Comment
emilyfitts avatar
*me a beginner at tab* *looks at this* w h a t
22 Aug 2019
Comment

Top Tabs & Chords by Themes, don't miss these songs!

About this song: He Is A Pirate (Pirates Of The Caribbean)

No information about this song.

Did you cover He Is A Pirate (Pirates Of The Caribbean) on your Ukulele? Share your work!
Submit a cover