Adams Family Corrected Uke tab by Themes

Ukulele Tab without chords.

7.3/10
PrintAdd tab to your SongBook

Tablature / Chords (Full Song)

Font size: A- A A+

Artist: 
Album:  unknown
Key: unknownTablature (no chords)
Intro

A---0-2-3-t-0-2-3-4-t-0-2-3-4-0-2-3-4--0-2-3t
E--3----------------------------------3-----t
C-------------------------------------------
G-------------------------------------------



Main riff


A---3-7-3---5-1-2-5-2---3-------------------
E--3------5---------3-0---------------------
C----------5--------------------------------
G-------------------------------------------


A---3-7-3---5-3-2-0-2-3t--------------------
E--3------5------3-----t--------------------
C----------5-----------t--------------------
G-------------------------------------------


t=tap twice :)

Uke tab by , 30 Jan 2010

Tab comments (3)

Something to say?
Share your strumming patterns, chords or tips to play this tab! ;)
Filter by:
JosephUke avatar
flag for GB(ISO2) (Sheffield)
T means "tap" like in the real song it taps twice
03 Jul 2010
Comment
gingybread avatar
flag for GB(ISO2) (london)
what does that t mean
03 Jul 2010
Comment
LeSmarty avatar
I think there is a mistake in the intro. As i hear it, it sounds more like :

A---0-2-3-t-0-2-4-5-t-0-2-4-5-0-2-4-5--0-2-3t E--3----------------------------------3-----t C------------------------------------------- G-------------------------------------------

Still great to play, gives me a smile every time :)
09 Feb 2010
Correction

Top Tabs & Chords by Themes, don't miss these songs!

About this song: Adams Family Corrected

No information about this song.

Did you cover Adams Family Corrected on your Ukulele? Share your work!
Submit a cover