Boom Boom Uke tab by The Yardbirds

Ukulele Tab without chords.

Rate song!
PrintAdd tab to your SongBook

Tablature / Chords (Simplified Song)

Font size: A- A A+

Artist: 
Album: 
Year:  2001
Difficulty: 
5
(Intermediate)
Key: E, A, F#m, Gbm, C#m, Tablature (no chords)
# Listen to how it sounds here www.youtube.com/watch?v=-xBAac9h3ng
# Play each riff and then the chord pattern to follow. It's a twelve bar blues progression.
# To play John Lee Hooker's version, tune up half a step.
# (I play the E E chord by barring the 4th fret for the G G,C C and E E strings and the 2nd fret on the A A string).
# This is a great song to improvise with. Try substituting hammer-ons, pull-offs and bends for the slides.
# Use E blues scale http://www.ukulele-tabs.com/ukulele-scales.html?uke=1&key=7&scale=12
# Tabbed by Rob Scroope.


A|-----------5-----------------------------| E A A E
E|--5s7----------7s5---3-------------------|
C|------------------------------4---2--4---|
G|-----------------------------------------|



A|-----------------------------------------| E A A E
E|---3-----5s7s5---3-----------------------|
C|-------------------------4---2----4------|
G|-----------------------------------------|



A|----------5------------------------------| A D D A
E|---5s7-------7s5----3---5---3----5-------|
C|-----------------------------------------|
G|-----------------------------------------|



A|-----------------------------------------| E A A E
E|-----3----5s7s5----3---------------------|
C|-4------------------------4---2---4------|
G|-----------------------------------------|



A|---------5-------------------------------| B E E B
E|---5s7--------7s5----3---5----3-------5s7|
C|-----------------------------------------|
G|-----------------------------------------|



A|--------------5--------------------------| E A A E
E|---5---7----------6s7--------------------|
C|-----------------------------7----4------|
G|-----------------------------------------|

Uke tab by , 19 Feb 2014

Tab comments (0)

No comment yet :(
Need help, a tip to share, or simply want to talk about this song? Start the discussion!

Something to say?
Share your strumming patterns, chords or tips to play this tab! ;)

Top Tabs & Chords by The Yardbirds, don't miss these songs!

About this song: Boom Boom

No information about this song.

Did you cover Boom Boom on your Ukulele? Share your work!
Submit a cover