Blinding Lights Uke tab by The Weeknd

4 Chords used in the song: Am, Em, G, D

Add tab to your SongBook
Tablature / ChordsFont size: A- A A+

Don't know how to read a tab or a chord ? Check out these uke lessons:

Detailed guide to strumming and picking
How to read uke tabs
Reading chord diagrams

Intro 
Am Am Em Em G G D D
A-0-0--0-2----0-0--0-2---5-2-0--5-2-0--0
E-0-0-3---0-3-3-3-3----3-3----3-3----3-2
C-0-0---------4-4-----4--2------2------2
G-2-2---------0-0--------0------0------2
Verse x2
Am Am Em Em
A-0---------0-----0----0---------0-----0-------------0---
E-----3-------3---0---------3-------3--3---3---3---------
C-----------------0--------------------2----------------4
G-----------------2--------------------0-----------------
I’ve been tryna call I’ve been on my own for long enough
G G D D
A-0-----0-------0-----------0--------0---
E-3--3------3---3----3--3--------------2-
C-4-------------2--------------2-------2-
G-0-------------0----------------------2-
Maybe you can show me how to love, maybe
Pre-Chorus Am Am Em Em
A--------------------------0----2-----------0---
E---------------0----0---3------0----0---3-----3
C-4-2----4--2---0--------0------0--------------4
G---------------2--------2------2--------------0
I look around and, Sin City’s cold and empty oh
G G
A----------0--2------------0-2---------0---2------------0---------
E----3--------3------3-------3-0-3---------3---0---3---------2-0--
C-4-----------4---4----------2-------------2-----------------2-2-2
G-------------0--------------0-------------0---------------------2
No one’s around to judge me, I can’t see clearly when your gone
Chorus x2 Am Am Em Em G G D D
A-0--0-----0--2---0-----------------------5-2----0----------5----2-0-------0----
E------3---0------3--3---3------3------3--3-------------3---3-----------3--2----
C----------0------4---------4---4---------2-----------------2--------------2----
G----------2------0-------------0---------0-----------------0--------------2----
& I said oh Im blinded by the lights No I cant sleep here till I feel ur touch
-Repeat entire song including IntroBridge
A-5---2----5---2---7--2---2--0---0-----5-5---5--2--7---2--2--0---0----
E------------------0-------------0---------------------3---------3----
C------------------0-------------0---------------------4---------4----
G------------------2-------------2---------------------0---------0----
I’m just walking by to let you know, I can never say it on the phone
A-5----5--2---7--2---2--5----5---
E---------3----------3-------2---
C---------2----------2-------2---
G---------0----------0-------0---
Will never let you go this time
-Repeat Chorus x3

 

Tab comments (0)
No comment yet :(
Need help, a tip to share, or simply want to talk about this song? Start the discussion!

You must be logged in to join the discussion
or Register

 

About this song

On “Blinding Lights,” the second single to The Weeknd’s fourth studio album, Abel speaks on his significant other, comparing the effect they have on him to them lighting up his life. The song is an up-tempo electropop track that features large 80s-inspired synths and electronic dance music drums, similar to the sonic direction of his November 2016 album, Starboy.On November 24, 2019, the track was premiered in the trailer for a Mercedes Benz TV advert, before officially releasing five days later. Read more on Last.fm.