Twist And Shout Uke tab by The Beatles

Ukulele Tab without chords.

Add tab to your SongBook
Tablature / ChordsFont size: A- A A+

Don't know how to read a tab or a chord ? Check out these uke lessons:

Detailed guide to strumming and picking
How to read uke tabs
Reading chord diagrams

A|------7-7-5-5-3-5------7-7-5-5-3-5------7-7-5-5-3-5------7-7-5-5-3-5----|
E|--3-3---3-2-2-0----3-3---3-2-2-0----3-3---3-2-2-0----3-3---3-2-2-0------|
C|------------------------------------------------------------------------|
G|--4-4-5---------4--4-4-5---------4--4-4-5---------4--4-4-5---------4----|

A|--7-4--6-------6---7------------------------------------|
E|--5------5-7-9--10---------2-------------------------|
C|--9-11-13--2-4-6--7---------2-------------------------|
G|----4-6--7-9-11--12---------5-------------------------|

 

Tab comments (0)
No comment yet :(
Need help, a tip to share, or simply want to talk about this song? Start the discussion!

You must be logged in to join the discussion
or Register

 

About this song

"Twist and Shout" is a song written by Phil Medley and Bert Russell. It was originally recorded by the Topnotes and then The Isley Brothers. It was covered by The Beatles, with John Lennon on the lead vocals, and originally released on their first album Please Please Me. The recording session for that album was their first album session, and is notable for eleven songs having been recorded in a mere 10 hours (the remaining four songs had previously been released as singles and one song was not released).