Something Uke tab by The Beatles

16 Chords used in the song: C, Cmaj7, C7, F, Am, D, D7, G, G7, Am+7, Am7, Eb, A, Amaj7, F#m, A7

Add tab to your SongBook
Tablature / ChordsFont size: A- A A+

Don't know how to read a tab or a chord ? Check out these uke lessons:

Detailed guide to strumming and picking
How to read uke tabs
Reading chord diagrams

C C                        Cmaj7 Cmaj7
Something in the way she moves
C7 C7 F F Am Am
Attracts me like no other lover
D D D7 D7 G G Am Am G7 G7
Something in the way she woos me
Am Am C+ C+
I don't want to leave her now
Am7 Am7 D D
You know I believe and how

F F Eb Eb G G C C
G |--2-------------0---0---0-----|
C |--0-------------3---2---0-----|
E |--1-------------3---3---0-----|
A |--0--0--3\2--0--1---2---3-----|


C C Cmaj7 Cmaj7
Somewhere in her smile she knows
C7 C7 F F Am Am
That I don't need no other lover
D D D7 D7 G G Am Am G7 G7
Something in her style that shows me
Am Am C+ C+
I don't want to leave her now
Am7 Am7 D D
You know I believe and how

F F Eb Eb G G A A
G |--2-------------0---0---2-----|
C |--0-------------3---2---1-----|
E |--1-------------3---3---0-----|
A |--0--0--3\2--0--1---2---4-----|

A A Amaj7 Amaj7 F#m F#m A7 A7
You're asking me will my love grow
D D G G A A
I don't know, I don't know

G |-------------------|
C |-------------------|
E |--5-4-3-2-1--------|
A |--0-0-0-0-0--------|

A A Amaj7 Amaj7 F#m F#m A7 A7
Stick around and it may show
D D G G C C
But I don't know, I don't know


(SOLO)
G |----------------|----------|--------------|-------------------------|
C |------------2-0-|--2\4---4-|2\4---------4-|-2\4---------------------|
E |--------3-0-----|------3---|----3\5--3----|------3\5--3--5\6--------|
A |--3-2-0---------|----------|--------------|-------------------3-3---|

G |------------|---------------------------2--2--------|---------------|
C |------------|------------2\4--------4----0---2------|---------------|
E |------------|-3\5-------------3-3---------------2-2-|---5--5----3---|
A |--5-3-5-3---|------3-3------------------------------|---------------|

G |---------------------|----------------------------------------------|
C |---------------------|-----2-0-2-0-4--------------------------------|
E |--5\7--5-3-----------|------------3---------------------5-----------|
A |-------------7-6-5---|----------------5\7--5--3---5\3---------------|

F F Eb Eb G G A A
G |--2-------------0---0---2-----|
C |--0-------------3---2---1-----|
E |--1-------------3---3---0-----|
A |--0--0--3\2--0--1---2---4-----|


C C Cmaj7 Cmaj7
Something in the way she knows
C7 C7 F F Am Am
All I have to do is think of her
D D D7 D7 G G Am Am G7 G7
Something in the things she shows me
Am Am C+ C+
I don't want to leave her now
Am7 Am7 D D
You know I believe and how

F F Eb Eb G G A A F F Eb Eb G G C C
G |--2-------------0---0---2-----|--2-------------0---0---0-----|
C |--0-------------3---2---1-----|--0-------------3---2---0-----|
E |--1-------------3---3---0-----|--1-------------3---3---0-----|
A |--0--0--3\2--0--1---2---4-----|--0--0--3\2--0--1---2---3-----|

 

Tab comments (1)
You must be logged in to join the discussion
or Register

 

fedexthebro avatar
flag for AR(ISO2) (Córdoba)
can you rename it back to "something"?
07 Dec 2020
About this song

"Something" is a song released by The Beatles in 1969. It was featured on the album Abbey Road, and was also the first song written by George Harrison to appear on the A-side of a Beatles single. It was one of the first Beatles singles to contain tracks already available on a long playing (LP) album, with both "Something" and "Come Together" having appeared on Abbey Road. "Something" was the only Harrison composition to top the American charts while he was in The Beatles. Read more on Last.fm.