In Spite Of All The Danger Uke tab by The Beatles

3 Chords used in the song: E, A, B

Add tab to your SongBook
Tablature / ChordsFont size: A- A A+

Don't know how to read a tab or a chord ? Check out these uke lessons:

Detailed guide to strumming and picking
How to read uke tabs
Reading chord diagrams

# Im the first one to bring the solo, its awesome! enjoy! #

Intro:

A------------------------------------------2-2-2-2-2-2-2-|
E--0--4------------------------------------2-2-2-2-2-2-2-|
C------------------------------------------3-3-3-3-3-3-3-|
G--------4--9---9---9---7---4--9---9--7--4-2-2-2-2-2-2-2-|
E E
In spite of all the danger

In spite of all that may be
(aah ah ah ah)
A A
I'll do anything for you
B B
Anything you want me to
E E A A E E
If you'll be true to me

E E
In spite of all the heartache

That you may cause me
(aah ah ah ah)
A A
I'll do anything for you
B B
Anything you want me to
E E A A E E
If you'll be true to me

A A
I'll look after you
E E
Like I've never done before
A A
I'll keep all the others
B B
From knocking at your door


E E
In spite of all the danger

In spite of all that may be
(aah ah ah ah)
A A
I'll do anything for you
B B
Anything you want me to
E E A A E E
If you'll be true to me

Yeah!

Solo:

A-7----------------------7-------------------------------|
E--4----------------------4------------------------------|
C--------------------------------------------------------|
G----4-9--9--9--7--4--9-----4-9--9--9--7--4--9-----------|

A-7------------------------------------------------------|
E--4-----------------------------------------------------|
C--------------------------------------------------------|
G----4-9--9--9--7--4--9--7-4-9--7-4-9--7-4-9--7-4--------|

A--------------------------------------------------------|
E--------------------------------------------------------|
C--------------------------------------------------------|
G-12--12--12--11--9--12--12--11--9--12--12--11--9--7-4-9--7-4-9--7-|

A-------------------------------------------2-2-2-2-2-2-2|
E-------------------------------------------2-2-2-2-2-2-2|
C-------------------------------------------3-3-3-3-3-3-3|
G-10-10-10-10-10--10--9--8-4-9--7-4-9--7----2-2-2-2-2-2-2|


E E
In spite of all the heartache

That you may cause me
(aah ah ah ah)
A A
I'll do anything for you
B B
Anything you want me to
E E A A E E
If you'll be true to me

A A
I'll do anything for you
B B
Anything you want me to
E E A A E E B B E E
If you'll be true to me.

 

Tab comments (0)
No comment yet :(
Need help, a tip to share, or simply want to talk about this song? Start the discussion!

You must be logged in to join the discussion
or Register

 

About this song

No information about this song.