In My Life Uke tab by The Beatles

Ukulele Tab without chords.

Add tab to your SongBook
Tablature / ChordsFont size: A- A A+

Don't know how to read a tab or a chord ? Check out these uke lessons:

Detailed guide to strumming and picking
How to read uke tabs
Reading chord diagrams

---2-0-2-4-7-4
0-2-----------
--------------
--------------

2-4-2-4-2-0---4-4
-----------2-0---
-----------------
-----------------

----2-0-2-4-7-4
0-2------------
---------------
---------------

2-4-2-4-2-0----4-4
------------2-0---
------------------
------------------

0-2-4-2-2-0-0-----0-4-2
--------------2-2------
-----------------------
-----------------------

4-5-4-2-0-----4-4-4---0-2-4-2-2-0-0----0-4-2
----------2-0-----------------------2-2-----
--------------------------------------------
--------------------------------------------

2-4-2-4-2-----4-4
----------2-0----
-----------------
-----------------

----------------------------
------0-1-2--------0-1-2----
2---2--------2---2----------
--0------------0------------

 

Tab comments (1)
You must be logged in to join the discussion
or Register

 

armul avatar
very nice and easy
25 Dec 2020
About this song

No information about this song.