Hey Jude Uke tab by The Beatles

0 Chords used in the song:

9.3/10
PrintAdd tab to your SongBook

Tablature / Chords (Full Song)

Font size: A- A A+

Artist: 
Album: 
Year:  2000
Key: unknownChords and Tablature
Hey Jude

A-3----0-----0----3----5-------------0--1--8----8---7---3- (5-3-1)--0-------------
E--------------------------3-----3------------------------------------------------
C---------------------------------------------------------------------------------
G---------------------------------------------------------------------------------
Hey, Jude, don't make it bad , Take a sad song and make it be-----tter

A-3---5---5---5--10-8----7-8---5----3---------------0--5---3--3---1---0-----------
E------------------------------------------1---3--------------------------0---1---
C---------------------------------------------------------------------------------
G---------------------------------------------------------------------------------
Re/mem/ber to let her in/to your heart..Then you can sta/rt to make it bet/ter

Hey, Jude, don't be afraid
You were made to go out and get her
The minute you let her under your skin
Then you begin to make it better

A-----8--5--5----3---3----1---5---8---5-----8----1----8-----5----3--1---3----5--3---1---0--------------
E-1-------------------------------------------------------------------------------------------3---1----
C------------------------------------------------------------------------------------------------------
G------------------------------------------------------------------------------------------------------
And an-y-time you feel the pain,Hey,Jude, re-frain ,Don't car-ry the world up/on your shoul-de-rs

For well you know that it's a fool
Who plays it cool
By making his world a little colder


A------3---5---6---6----7----8---10---10-------------------------------
E-1--------------------------------------------------------------------
C----------------------------------------------------------------------
G----------------------------------------------------------------------
Nah, nah nah, nah nah, nah nah, nah nah yeah

Hey, Jude, don't let me down
You have found her, now go and get her
Remember to let her into your heart
Then you can start to make it.Better

So let it out and let it in,
Hey, Jude, begin
You're waiting for someone to perform with
And don't you know that it's just you,
Hey, Jude, you'll do
The movement you need is on your shoulder

Nah, nah nah, nah nah, nah nah, nah nah yeah

A-------------------7---8----11--12---14--15--------------------
E-4---5----7---8--------------------------------------
C-------------------------------------------------------
G-------------------------------------------------------
bet-ter, bet-ter, bet-ter, bet-ter, bet-ter... oh!


A-----0----3---10---8---10---8----10---8----10--8--6--5----3------
E-1---------------------------------------------------------------
C-------------------------------------------------------------------
G-------------------------------------------------------------------

Nah, nah nah, nah nah, nah, nah, nah nah, nah nah, H-ey, Jude x13 (fade out)

Nah, nah nah, nah nah, nah, nah, nah nah,nah nah Hey, Jude
Nah, nah nah, nah nah, nah, nah, nah nah,nah nah Hey, Jude
Nah, nah nah, nah nah, nah, nah, nah nah,nah nah,Hey,Jude
Nah, nah nah, nah nah, nah, nah, nah nah,nah nah,Hey,Jude
Nah, nah nah, nah nah, nah, nah, nah nah,nah nah,Hey,Jude

⇢ Not happy with this tab? View 10 other version(s)

Uke tab by , 08 Aug 2017

Tab comments (1)

Something to say?
Share your strumming patterns, chords or tips to play this tab! ;)
Filter by:
AngstAttack avatar
Would really love to see this for a soprano uke
13 Feb 2020
Comment

Top Tabs & Chords by The Beatles, don't miss these songs!

About this song: Hey Jude

No information about this song.

Did you cover Hey Jude on your Ukulele? Share your work!
Submit a cover