Here Comes The Sun Uke tab by The Beatles

Ukulele Tab without chords.

8/10
PrintAdd tab to your SongBook

Tablature / Chords (Full Song)

Font size: A- A A+

Artist: 
Album: 
Year:  1969
Key: unknownTablature (no chords)
A|-4--0--2--4-----4--2--0-----0--2--0-------|
E|-------------------------2-----------2--0-|
C|------------------------------------------|
G|------------------------------------------|


A|-4--0--2--4----4--2--0-----4--2--0------|
E|------------------------2------------4--|
C|----------------------------------------|
G|----------------------------------------|


A|-4--2--4--0----4--0--2--4----4--2--4--0----0--2--0----4--2--0--|
E|---------------------------------------------------------------|
C|---------------------------------------------------------------|
G|---------------------------------------------------------------|


A|--------2-----2-----2----------------|
E|------5-----5-----5------5-4---------|
C|--4/6-----2-----4------------6-4-----|
G|-------------------------------------|

⇢ Not happy with this tab? View 26 other version(s)

Uke tab by , 27 May 2020

Tab comments (1)

Something to say?
Share your strumming patterns, chords or tips to play this tab! ;)
Filter by:
Helpnoodle avatar
flag for US(ISO2) (Nah)
it's missing a few A-0's through the tab but the rest is for the most part spot on!
28 May 2020
Correction

Top Tabs & Chords by The Beatles, don't miss these songs!

About this song: Here Comes The Sun

No information about this song.

Did you cover Here Comes The Sun on your Ukulele? Share your work!
Submit a cover