Here Comes The Sun Uke tab by The Beatles

Ukulele Tab without chords.

6.5/10
PrintAdd tab to your SongBook

Tablature / Chords (Full Song)

Font size: A- A A+

Artist: 
Album: 
Year:  1969
Key: unknownTablature (no chords)
A|-4-0-2-4-0--4-2-0---4-2-0-----------2-----------------------|
E|------------------2-------0-2-0-2-4-------------------------|
C|------------------------------------------------------------|
G|------------------------------------------------------------|

A|-4-0-2-4-0--4-2-0---4-2-0-----------------------------------|
E|------------------2-------4---------------------------------|
C|------------------------------------------------------------|
G|------------------------------------------------------------|

A|-4-2-4-0---4-0-2-4---4-2-4-0-----2-0---4-2-0----------0-----2-0--|
E|-------------------------------2----------------0-2-4---2-4-----|
C|------------------------------------------------------------|
G|------------------------------------------------------------|

⇢ Not happy with this tab? View 26 other version(s)

Uke tab by , 25 Nov 2019

Tab comments (0)

No comment yet :(
Need help, a tip to share, or simply want to talk about this song? Start the discussion!

Something to say?
Share your strumming patterns, chords or tips to play this tab! ;)

Top Tabs & Chords by The Beatles, don't miss these songs!

About this song: Here Comes The Sun

"Here Comes the Sun" is a song by George Harrison from The Beatles' 1969 album Abbey Road.The song, one of Harrison's best-known Beatles contributions alongside "Something", originated from a songwriting collaboration between Harrison and close friend Eric Clapton called "Badge," recorded by Clapton's group Cream, and featuring an arpeggiated guitar riff that is similar to the one that forms the bridge of "Here Comes the Sun". 1969 was a difficult year for Harrison: he was arrested for marijuana possession Read more on Last.fm.

Did you cover Here Comes The Sun on your Ukulele? Share your work!
Submit a cover