Here Comes The Sun Uke tab by The Beatles

6 Chords used in the song: G, C, A7, D, Bb, F

8/10
PrintAdd tab to your SongBook

Tablature / Chords (Full Song)

Font size: A- A A+

Artist: 
Album: 
Year:  1969
Difficulty: 
3.5
(Intermediate)
Key: unknownChords and Tablature
dodododo = G|---------|
C|---------|
E|---3---3-|
A|-2---0---|

G G
Here comes the sun (doo doo doo doo)
C C A7 A7
Here comes the sun, and I say
G G
It's all right

G|-----------------------------|
C|-2h4-----2-----0-----------2-|
E|-----3-----3-----3---3-2-0---|
A|-------0-----0-----0---------|

G G C C
Little darling, it's been a long
D D
cold lonely winter
G G
Little darling, it feels like
C C D D
years since it's been here
G G
Here comes the sun (dodododo)
C C A7 A7
Here comes the sun, and I say
G G
It's all right

G|-----------------------------|
C|-2h4-----2-----0-----------2-|
E|-----3-----3-----3---3-2-0---|
A|-------0-----0-----0---------|

G G
Little darling, the smiles
C C D D
returning to the faces
G G
Little darling, it seems like
C C D D
years since it's been here
G G
Here comes the sun (dodododo)
C C A7 A7
Here comes the sun, and I say
G G
It's all right

G|-----------------------------|
C|-2h4-----2-----0-----------2-|
E|-----3-----3-----3---3-2-0---|
A|-------0-----0-----0---------|

Bb Bb F F C C G G D D
Sun, sun, sun, here it comes
Bb Bb F F C C G G D D
Sun, sun, sun, here it comes
Bb Bb F F C C G G D D Sun, sun, sun, here it comes
Bb Bb F F C C G G D D
Sun, sun, sun, here it comes
Bb Bb F F C C G G D D
Sun, sun, sun, here it comes
G G C C
Little darling, I feel that ice is
D D
slowly melting
G G C C
Little darling, it seems like
D D
years since it's been clear
G G
Here comes the sun (dodododo)
C C A7 A7
Here comes the sun, and I say
G G
It's all right

G|-----------------------------|
C|-2h4-----2-----0-----------2-|
E|-----3-----3-----3---3-2-0---|
A|-------0-----0-----0---------|

G G
Here comes the sun (dodododo)
C C A7 A7
Here comes the sun, and I say
G G
It's all right
G G C C
It's all right

⇢ Not happy with this tab? View 26 other version(s)

Uke tab by , 26 Feb 2019

Tab comments (0)

No comment yet :(
Need help, a tip to share, or simply want to talk about this song? Start the discussion!

Something to say?
Share your strumming patterns, chords or tips to play this tab! ;)

Top Tabs & Chords by The Beatles, don't miss these songs!

About this song: Here Comes The Sun

No information about this song.

Did you cover Here Comes The Sun on your Ukulele? Share your work!
Submit a cover