Here Comes The Sun Uke tab by The Beatles

6 Chords used in the song: G, A7, C, D, Bb, F

Add tab to your SongBook
Tablature / ChordsFont size: A- A A+

Don't know how to read a tab or a chord ? Check out these uke lessons:

Detailed guide to strumming and picking
How to read uke tabs
Reading chord diagrams

All credit to The Ukulele Teacher: https://www.youtube.com/watch?v=ApgxqP9e3i8

[INTRO]
(Play through verse once as an instrumental)


[CHORUS]
G G
Here comes the sun

A|-2---0-2--|
E|---3------|
C|----------|
G|----------|

C C A7 A7
Here comes the sun, and I say
G G
It's all right

A|-----0-----0-----0-----0----------|
E|---3-----3-----3-----3---3-2-0----|
C|-4-----2-----0-----2-----------2--|
G|----------------------------------|


[VERSE 1]
G G C C D D
Little darling, it's been a long cold lonely winter

A|---------0--|
E|-2-0-2-3----|
C|------------|
G|------------|

G G C C D D
Little darling, it feels like years since it's been here


[CHORUS]
G G
Here comes the sun

A|-2---0-2--|
E|---3------|
C|----------|
G|----------|

C C A7 A7
Here comes the sun, and I say
G G
It's all right

A|-----0-----0-----0-----0----------|
E|---3-----3-----3-----3---3-2-0----|
C|-4-----2-----0-----2-----------2--|
G|----------------------------------|

A|---------0--|
E|-2-0-2-3----|
C|------------|
G|------------|


[VERSE 2]
G G C C D D
Little darling, the smiles returning to the faces

A|---------0--|
E|-2-0-2-3----|
C|------------|
G|------------|

G G C C D D
Little darling, it seems like years since it's been here

[CHORUS]
G G
Here comes the sun

A|-2---0-2--|
E|---3------|
C|----------|
G|----------|

C C A7 A7
Here comes the sun, and I say
G G
It's all right

A|-----0-----0-----0-----0----------|
E|---3-----3-----3-----3---3-2-0----|
C|-4-----2-----0-----2-----------2--|
G|----------------------------------|

A|---------0--|
E|-2-0-2-3----|
C|------------|
G|------------|


[BRIDGE]
Bb Bb F F C C G G
Sun, sun, sun, here it comes (x5)


[VERSE 3]
G G C C D D
Little darling, I feel that ice is slowly melting

A|---------0--|
E|-2-0-2-3----|
C|------------|
G|------------|

G G C C D D
Little darling, it seems like years since it's been clear


[CHORUS]
G G
Here comes the sun

A|-2---0-2--|
E|---3------|
C|----------|
G|----------|

C C A7 A7
Here comes the sun, and I say
G G
It's all right

A|-----0-----0-----0-----0----------|
E|---3-----3-----3-----3---3-2-0----|
C|-4-----2-----0-----2-----------2--|
G|----------------------------------|


[FINAL CHORUS]
G G
Here comes the sun

A|-2---0-2--|
E|---3------|
C|----------|
G|----------|

C C A7 A7
Here comes the sun
G G
It's all right

A|-----0-----0-----0-----0----------|
E|---3-----3-----3-----3---3-2-0----|
C|-4-----2-----0-----2-----------2--|
G|----------------------------------|

G G
It's all right

A|-----0-----0-----0-----0----------|
E|---3-----3-----3-----3---3-2-0----|
C|-4-----2-----0-----2-----------2--|
G|----------------------------------|


[OUTRO]

Bb Bb F F C C G G
A|---------------------2----|
E|-----1-----1-----0---3----|
C|---2-----0-----0-----2----|
G|-3-----2-----0-------0----|

 

Tab comments (3)
You must be logged in to join the discussion
or Register

 

Ceciliekjaer avatar
flag for DK(ISO2) (Virum)
idk what kind of strumming pattern i shold use?!
27 May 2019
Fakehappy26 avatar
doesn't need the plucking bits at verses
16 Jul 2018
jashock avatar
sounds great, definitely well put together.
16 Jul 2018
About this song

"Here Comes the Sun" is a song by George Harrison from The Beatles' 1969 album Abbey Road.The song, one of Harrison's best-known Beatles contributions alongside "Something", originated from a songwriting collaboration between Harrison and close friend Eric Clapton called "Badge," recorded by Clapton's group Cream, and featuring an arpeggiated guitar riff that is similar to the one that forms the bridge of "Here Comes the Sun". 1969 was a difficult year for Harrison: he was arrested for marijuana possession Read more on Last.fm.