Here Comes The Sun Uke tab by The Beatles

4 Chords used in the song: G, C, D7, A7

9.3/10
PrintAdd tab to your SongBook

Tablature / Chords (Full Song)

Font size: A- A A+

Artist: 
Album: 
Year:  1969
Difficulty: 
2.25
(Beginner)
Key: G, EmChords and Tablature
[Verse]

G G C C D7 D7
A|---2--2-----0--2-----2--0------3-----0---------2-----------0------|
E|---3-----3--------3--------3---3--3-----3------2--0--2--3-----3---|
C|---2---------------------------0---------------2------------------|
G|---0---------------------------0---------------2------------------|
Little darling, it s been a long cold lonely winter

G G C C D7 D7
A|---2--2-----0--2-----2--0------3--------0-------2--|
E|---3-----3--------3--------3---3----3-------3---2--|
C|---2---------------------------0----------------2--|
G|---0---------------------------0----------------2--|
Little darling, it feels like years since it s been here


[Chorus]

G G C C A7 A7
A|---2--2--0--2-------2-----0--2--3--2--0--2----0--|
E|---3-----------3-------3--------0-------------0--|
C|---2----------------------------0-------------1--|
G|---0----------------------------0-------------0--|
Here comes the sun Here comes the sun


G G
A|-----0-------2--2--0-----|
E|--3-----3----3--------3--|
C|-------------2-----------|
G|-------------0-----------|
And I say it s alright


[Lick]

A|-----------0--------0--------0--------0--------------|
E|--------3--------3--------3--------3-----3--2--0--2--|
C|--2--4--------2--------0--------2--------------------|
G|-----------------------------------------------------|


[Verse]

same picking as verse 1 :
Little darling, the smiles returning to the faces
Little darling, it seems like years since it's been here
Chorus same as above :
Here comes the sun, here comes the sun
And I say it's all right


[Lick]

A|-----------0--------0--------0--------0--------------|
E|--------3--------3--------3--------3-----3--2--0--2--|
C|--2--4--------2--------0--------2--------------------|
G|-----------------------------------------------------|


[Bridge]
G G G G G G
A|-----------------------------------2-2-2---------------0--|
E|--------1-------1-------0--0--3----3-3-3---2--0--2--3-----|
C|-----2-------0-------0-------------2-2-2------------------| x5 times
G|--3-------2-------0----------------0-0-0------------------|
Sun sun sun here it comes


[Verse]

same picking as verse 1 :

Little darling, I feel that ice is slowly melting
Little darling, it seems like years since it's been clear
Chorus same as above :
Here comes the sun, here comes the sun
And I say it's all right


[Lick]

A|-----------0--------0--------0--------0--------------|
E|--------3--------3--------3--------3-----3--2--0--2--|
C|--2--4--------2--------0--------2--------------------|
G|-----------------------------------------------------|


[Chorus]

G G C C A7 A7
A|---2--2--0--2-------2-----0--2--3--2--0--2----0--|
E|---3-----------3-------3--------0-------------0--|
C|---2----------------------------0-------------1--|
G|---0----------------------------0-------------0--|
Here comes the sun Here comes the sun


G G
A|-----0-------2--2--0-----|
E|--3-----3----3--------3--|
C|-------------2-----------|
G|-------------0-----------|
And I say it s alright


[Lick]

A|-----------0--------0--------0--------0--------------|
E|--------3--------3--------3--------3-----3--2--0--2--|
C|--2--4--------2--------0--------2--------------------|
G|-----------------------------------------------------|

End on a single strum of G G chord

⇢ Not happy with this tab? View 26 other version(s)

Uke tab by , 20 Dec 2016

Tab comments (1)

Something to say?
Share your strumming patterns, chords or tips to play this tab! ;)
Filter by:
rojimama avatar
flag for ID(ISO2) (Jakarta)
Thanks! This is really well written!
31 Mar 2017
Comment

Top Tabs & Chords by The Beatles, don't miss these songs!

About this song: Here Comes The Sun

No information about this song.

Did you cover Here Comes The Sun on your Ukulele? Share your work!
Submit a cover