Here Comes The Sun Uke tab by The Beatles

8 Chords used in the song: G, Cmaj7, A7, C, Am7, F#dim, Bb, F

Add tab to your SongBook
Tablature / ChordsFont size: A- A A+

Don't know how to read a tab or a chord ? Check out these uke lessons:

Detailed guide to strumming and picking
How to read uke tabs
Reading chord diagrams

# Intro
A -----2-------0---2------2---0-------------0----------------------0------2------0----2-----2---0---------2--0-----0--|
E --3--3---3----------3---3------3---0---3------3---2---0---2---3-----3---3---3----------3--3------3---0--0-----3--2--|
C -----2------------------2-----------------------------------------------2-----------------2-------------0--------0--|
G -----0------------------0-----------------------------------------------0-----------------0-------------0--------2--|

# Chorus
G G Cmaj7 Cmaj7 A7 A7 G G
Here comes the sun (doo-doo-doo-doo), here comes the sun and I say, It's alright

# Instrumental
C C G G Am7 Am7 G G F#dim F#dim G G
A|------------0---------0----------0------0-------------------2-|
E|-----0--3---------3----------3-------3-----3--2--0----3-----3-|
C|--2------------2---------0---------2----------------2-------2-|
G|------------------------------------------------------------0-|

G G C C F#dim F#dim
Little darling, It's been a long cold lonely winter


A|--0------------- 0--|
E|--2---0--2--3----2--|
C|--0--------------0--|
G|--2--------------2--|

G G C C F#dim F#dim
Little darling, it feels like years since it's been here

A---0------------- 0---
E---2---0--2--3----2---
C---0--------------0---
G---2--------------2---

# Chorus

# Instrumental
C C G G Am7 Am7 G G F#dim F#dim G G F#dim F#dim
A|------------0---------0---------0------0--------------------2-----0--2--0----------0|-
E|-----0--3---------3---------3-------3----3--2--0------3-----3--3--------2--0--2--3---|
C|--2------------2--------0---------2-----------------2-------2-----------0------------|
G|------------------------------------------------------------0-----------2------------|

G G C C F#dim F#dim
Little Darling, the smiles returning to the faces

A---0------------- 0---
E---2---0--2--3----2---
C---0--------------0---
G---2--------------2---

G G C C F#dim F#dim
Little Darling, it seems like years since its been here

# Chorus

# Instrumental

C C G G Am7 Am7 G G F#dim F#dim G G F#dim F#dim
A|------------0---------0---------0------0--------------------2-----0--2--0----------0|-
E|-----0--3---------3---------3-------3----3--2--0------3-----3--3--------2--0--2--3---|
C|--2------------2--------0---------2-----------------2-------2-----------0------------|
G|------------------------------------------------------------0-----------2------------|


# Bridge

A|-------------1-----------0-----------3---------2----------0----------|
E|----0---3----1---1-------1---1-------0---0-----3---3------2-----0---3|
C|-0-----------2-------2---0-------0---0------0--2-------2--0---0------|
G|-------------3-----------2-----------0---------0----------2----------|

Bb Bb F F C C G G F#dim F#dim
Sun, sun, sun here it comes

A|------------|
E|------0---3-|
C|--0---------|
G|------------|

# 4 Times

Bb Bb F F C C G G F#dim F#dim
Sun, sun, sun here it comes

A|------------------------------------------|
E|--2--0--2--3--2--3--5--3--5--8--8--11--11-|
C|--0--0--0--0--0--0--0--0--0--0--0--0----0-|
G|------------------------------------------|

G G C C F#dim F#dim
Little darling, I feel that ice is slowly melting

A---0------------- 0---
E---2---0--2--3----2---
C---0--------------0---
G---2--------------2---

G G C C F#dim F#dim
Little darling, it seems like years since it's been clear

A---0------------- 0---
E---2---0--2--3----2---
C---0--------------0---
G---2--------------2---

# Chorus

# Instrumental
C C G G Am7 Am7 G G F#dim F#dim G G F#dim F#dim
A|------------0---------0---------0------0--------------------2-----0--2--0----------0-|
E|-----0--3---------3---------3-------3----3--2--0------3-----3--3--------2--0--2--3---|
C|--2------------2--------0---------2-----------------2-------2-----------0------------|
G|------------------------------------------------------------0-----------2------------|


# Chorus

# Instrumental

C C G G Am7 Am7 G G F#dim F#dim G G F#dim F#dim
A|------------0---------0---------0------0--------------------2-----0--2--0----------0|-
E|-----0--3---------3---------3-------3----3--2--0------3-----3--3--------2--0--2--3---|
C|--2------------2--------0---------2-----------------2-------2-----------0------------|
G|------------------------------------------------------------0-----------2------------|

G G
It's alright...

C C G G Am7 Am7 G G F#dim F#dim Bb Bb F F C C G G

A|------------0---------0-------0--------0--------------1---------0----------3----------2-|
E|-----0--3---------3--------3-------3-----3--2--0------1--1------1--1-------0--0-------3-|
C|--2------------2--------0-------2------------------2--2------2--0------0---0------0---2-|
G|------------------------------------------------------3---------2----------0----------0-|

 

Tab comments (0)
No comment yet :(
Need help, a tip to share, or simply want to talk about this song? Start the discussion!

You must be logged in to join the discussion
or Register

 

About this song

"Here Comes the Sun" is a song by George Harrison from The Beatles' 1969 album Abbey Road. The song, one of Harrison's best-known Beatles contributions alongside "Something", originated from a songwriting collaboration between Harrison and close friend Eric Clapton called "Badge," recorded by Clapton's group Cream, and featuring an arpeggiated guitar riff that is similar to the one that forms the bridge of "Here Comes the Sun". 1969 was a difficult year for Harrison: he was arrested for marijuana possession, he had his tonsils removed, and he had temporarily quit the band.