Baby You're A Rich Man Uke tab by The Beatles

Ukulele Tab without chords.

Add tab to your SongBook
Tablature / ChordsFont size: A- A A+

Don't know how to read a tab or a chord ? Check out these uke lessons:

Detailed guide to strumming and picking
How to read uke tabs
Reading chord diagrams

A|2-----------------|3-----------------|
E|1-----------------|0-----------------|
C|2-----------------|0-----------------|
G|0-----------------|0-----------------|

A|2-3-5-10--12-10---|2-3-5-10--12-10---|
E|1-----7---7--7----|0-----0---0--0----|
C|2-----5---5--5----|0-----0---0--0----|
G|0-----0---0--0----|0-----0---0--0----|

A|12--10------------|2-3-5-10--12-10---|
E|7---7-------------|1-----7---7--7----|
C|5---5-------------|2-----5---5--5----|
G|0---0-------------|0-----0---0--0----|

A|0-----------------|7--8--7--5----7---|
E|1-----------------|5--5--5--5----5--3|
C|0-----------------|0----------------0|
G|2-----------------|------------------|

A|10---10---10---10-|10---10---10---10-|
E|7----7----7----7--|0----0----0----0--|
C|5----5----5----5--|0----0----0----0--|
G|0----0----0----0--|0----0----0----0--|

A|10---10---10---8--|8----7----7----7--|
E|7----7----7----7--|0----0----0----0--|
C|5----5----5----5--|0----0----0----0--|
G|0----0----0----0--|0----0----0----0--|

A|10-----8-7-8-7-5-7|3----3----3----3--|
E|7------7-7-7-7-7-7|0----0----0----0--|
C|5------5-5-5-5-5-5|0----0----0----0--|
G|0------0-0-0-0-0-0|0----0----0----0--|

A|10----5--7--8--7--|12---10---10---10-|
E|7-----7--7--7--7--|0----0----0----0--|
C|5-----5--5--5--5--|0----0----0----0--|
G|0-----0--0--0--0--|0----0----0----0--|

A|10---10---10---10-|10---10---10---10-|
E|7----7----7----7--|0----0----0----0--|
C|5----5----5----5--|0----0----0----0--|
G|0----0----0----0--|0----0----0----0--|

A|10---10---10---8--|8----7----7----7--|
E|7----7----7----7--|0----0----0----0--|
C|5----5----5----5--|0----0----0----0--|
G|0----0----0----0--|0----0----0----0--|

 

Tab comments (0)
No comment yet :(
Need help, a tip to share, or simply want to talk about this song? Start the discussion!

You must be logged in to join the discussion
or Register

 

About this song

"Baby, You're a Rich Man" is a song written by John Lennon and Paul McCartney and recorded by The Beatles on 11 May 1967 at Olympic Sound Studios. This was the first song by the band recorded and mixed completely outside Abbey Road Studios. The song was recorded during sessions for the Magical Mystery Tour EP, but was intended for the Yellow Submarine soundtrack. That plan changed when it was used as the B-side of the "All You Need Is Love" single.