And I Love Her Uke tab by The Beatles

6 Chords used in the song: Am, Em, Bm, D, C, G

PrintAdd tab to your SongBook
Tablature / ChordsFont size: A- A A+

Don't know how to read a tab or a chord ? Check out these uke lessons:

Detailed guide to strumming and picking
How to read uke tabs
Reading chord diagrams

# Side Note: None of this is mine, I found the Tab and the Chords to be easy, and I thought someone else would appreciate it if they were in the same place. I give full credit to FelipeVasc for the Chords, and Dgja90 for the Tab. Enjoy :).

Am Am Em Em
I give her all my love
Am Am Em Em
That's all I do
Am Am Em Em
And if you saw my love
C C D D
You'd love her too
G G
I love her

Am Am Em Em
She gives me everything
Am Am Em Em
And tenderly
Am Am Em Em
The kiss my lover brings
C C D D
She brings to me
G G
And I love her


Em Em D D Em Em Bm Bm
A A love like ours, could never die
Em Em Bm Bm D D
As long as I have you near me


Am Am Em Em
Bright are the stars that shine
Am Am Em Em
Dark is the sky
Am Am Em Em
I know this love of mine
C C D D
Will never die
G G
And I love her.

Am Am Em Em
I give her all my love
Am Am Em Em
That's all I do
Am Am Em Em
And if you saw my love
C C D D
You'd love her too
G G
I love her

Am Am Em Em
She gives me everything
Am Am Em Em
And tenderly
Am Am Em Em
The kiss my lover brings
C C D D
She brings to me
G G
And I love her


A|-----------------5----3----6------------|
E|----------------------------------------|
C|----5-----------------------------------|
G|--------0---1---------------------------|



A|-----------------5 / 3------------------|
E|----------------------------------------|
C|----5-----------------------------------|
G|--------0---1---------------------------|



A|-----------------5----3----6------------|
E|----------------------------------------|
C|----5-----------------------------------|
G|--------0---1---------------------------|



A|----6---3-------------------------------|
E|------------4--3 / 1--------------------|
C|----------------------------------------|
G|----------------------------------------|



A|----------------------------------------|
E|----------------------------------------|
C|----5\3--5--8---------------------------|
G|----------------------------------------|

 

Tab comments (0)
No comment yet :(
Need help, a tip to share, or simply want to talk about this song? Start the discussion!

You must be logged in to join the discussion
or Register

 

About this song

"And I Love Her" is a song recorded by English rock band the Beatles, written mainly by Paul McCartney. The fifth track on their third album, A Hard Day's Night, it was released 20 July 1964 with "If I Fell as a single by Capitol Records in the United States, reaching No. 12 on the Billboard Hot 100. Read more on Last.fm.