And I Love Her Uke tab by The Beatles

Ukulele Tab without chords.

9.1/10
PrintAdd tab to your SongBook

Tablature / Chords (Full Song)

Font size: A- A A+

Artist: 
Year:  1964
Key: unknownTablature (no chords)
A|-0--2--3--9--7--10--0--2--3--9--7--0--2--3--9--7--10--10--7--3--2--0-----|
E|------------------------------------------------------------------------------------------|
C|------------------------------------------------------------------------------------------|
G|-----------------------------------------------------------------------------------------|


A|--------------------2--------------------|
E|---0---------0----------------------------|
C|--------2--------------------------------|
G|----------------------------------------|

⇢ Not happy with this tab? View 7 other version(s)

Uke tab by , 10 Jul 2014

Tab comments (0)

No comment yet :(
Need help, a tip to share, or simply want to talk about this song? Start the discussion!

Something to say?
Share your strumming patterns, chords or tips to play this tab! ;)

Top Tabs & Chords by The Beatles, don't miss these songs!

About this song: And I Love Her

No information about this song.

Did you cover And I Love Her on your Ukulele? Share your work!
Submit a cover