All My Loving Uke tab by The Beatles

Ukulele Tab without chords.

Add tab to your SongBook
Tablature / ChordsFont size: A- A A+

Don't know how to read a tab or a chord ? Check out these uke lessons:

Detailed guide to strumming and picking
How to read uke tabs
Reading chord diagrams

This is the meledy of the song

|-1-0----0-1-3-5--7-8--8-7-5----5-5--5-3-1---------3--|
|-----3------0------5------5-5----6------3--3-1-3--0--|
|-----2------0------5------5------5------2------3--0--|
|-----0------0------5------7------7------0------3--0--|

|-1-0----0-1-3-5--7-8--8-7-5----5-5--5-3-1-0----------|
|-----3------0------5------5-5----6------0----3-1-----|
|-----2------0------5------5------5------0------0-----|
|-----0------0------5------7------7------0------2-----|

|-8-7-5----0--------0--8-7-5----0-------------0-1-3-5-|
|-----5-5--1--3-1-3-1------5-5--1--3-1-3-1--1-1-3-5-6-|
|-----5----1--------0------5----1--------0--0-------0-|
|-----7----2--------2------7----2--------2--2-------0-|

|-3--1--0---------------------------------------------|
|-5--3--1-------1-------------------------------------|
|-0--0--0-2-0-2---------------------------------------|
|-------2---------------------------------------------|

|-1-0----0-1-3-5--7-8--8-7-5----5-5--5-3-1---------3--|
|-----3------0------5------5-5----6------3--3-1-3--0--|
|-----2------0------5------5------5------2------3--0--|
|-----0------0------5------7------7------0------3--0--|

|-1-0----0-1-3-5--7-8--8-7-5----5-5--5-3-1-0----------|
|-----3------0------5------5-5----6------0----3-1-----|
|-----2------0------5------5------5------0------0-----|
|-----0------0------5------7------7------0------2-----|

|-8-7-5----0--------0--8-7-5----0-----------8-7-5-----|
|-----5-5--1--3-1-3-1------5-5--1--3-1-3-1------5-5---|
|-----5----1--------0------5----1--------0------5-----|
|-----7----2--------2------7----2--------2------7-----|

|-12-10-8-8--8-7-5-5--10-8-10--8-8-|
|-------5--------5---------------5-|
|-------5--------5---------------5-|
|-------5--------7---------------5-|

 

Tab comments (2)
You must be logged in to join the discussion
or Register

 

MooMoo avatar
Fantastic!
02 Jul 2010
egm94 avatar
Convoluted and hard to reach (for beginners). I would suggest you put in parentheses "advanced."
29 May 2010
About this song

No information about this song.