You Belong With Me Uke tab by Taylor Swift

Ukulele Tab without chords.

Add tab to your SongBook
Tablature / ChordsFont size: A- A A+

Don't know how to read a tab or a chord ? Check out these uke lessons:

Detailed guide to strumming and picking
How to read uke tabs
Reading chord diagrams

A:------------5-----------------------------5-----------------|
E:--------2-----3-2-3-2-3-2-0-----------2-----3-2-3-2-3-2-0---|
C:----------------------------2-----------------------------2-|
G:0H2-2-2---2-------------------0H2-2-2---2-------------------|

A:-----5-----5---5-----5-----5---5-----4-----4---4-----4-----4---4-|
E:---------------------------------0-----0-----0---0-----0-----0---|
C:-2-----2-----2---2-----2-----2-----------------------------------|
G:---2-----2---------2-----2---------2-----2---------2-----2-------|

A:-----2-----2---2-----2-----2---2-----5-----5---5-----5-----5---5-|
E:-0-----0-----0---0-----0-----0-----------------------------------|
C:---------------------------------2-----2-----2---2-----2-----2---| G:---0-----0---------0-----0---------0-----0---------0-----0-------|

A:-----2-----2---2-----5-----5---5-----5-----5---5-----4-----4---4-|
E:-0-----0-----0-----------------------------------0-----0-----0---|
C:-----------------2-----2-----2---2-----2-----2-------------------|
G:---0-----0---------0-----0---------2-----2---------2-----2-------|

A:-----2-----2---2-----5-----5---5-----4-----4---4-----4-----|
E:-0-----0-----0-------------------0-----0-----0---0-----0---|
C:-----------------2-----2-----2-----------------------------|
G:---0-----0---------0-----0---------2-----2---------2-----2-|

A:-55552-5552-552-552-5555-0000000000000000-2222222222222222-2222222222222222-|
E:---0220-2220-220-220-0---0000000000000000-0000000000000000-3332223333333333-|
C:-2222222222222222222------------------4444444----------2227772222222222-|
G:-2222222222222222222-2222222222222222-0000000000000022-0000000002222222-|

A:-52-5552-552-552-5555-0000000000000000-2222222222222222-2222222222222222-|
E:-220-2220-220-220-0---0000000000000000-0000000000000000-3332223333323322-|
C:-2222222222222222------------------4444444----------22277722222x22xx-|
G:-2222222222222222-2222222222222222-0000000000000022-0000000000000000-|
~
A:-5-5-5------------------5--5-5-5------------------5--|
E:-------0-0-0-2--2H3-2-0----------0-0-0-2--2H3-2-0----|
C:-----------------------------------------------------|
G:-----------------------------------------------------|
S ~ ~ ~
A:-----------------------------5-2---|
E:-0--0-0-0-2-3-5-5-5--2H3-2-0-------|
C:-----------------------------------|
G:---------------------------------2-|

A:-----2-----2---2-----5-----5---5-----5-----5---5-----4-----4---4-|
E:-0-----0-----0-----------------------------------0-----0-----0---|
C:-----------------2-----2-----2---2-----2-----2-------------------|
G:---0-----0---------0-----0---------2-----2---------2-----2-------|
~
A:-----2-----2---2-----5-----5---5-----5-----5---5-----4-----4-----4--|
E:-0-----0-----0-----------------------------------0-----0-----0---0--|
C:-----------------2-----2-----2---2-----2-----2----------------------|
G:---0-----0---------0-----0---------2-----2---------2-----2-----2----|

 

Tab comments (0)
No comment yet :(
Need help, a tip to share, or simply want to talk about this song? Start the discussion!

You must be logged in to join the discussion
or Register

 

About this song

"You Belong with Me" is the title of a song co-written and recorded by American country artist Taylor Swift. It is the third single from her second album, Fearless. In this song, she plays the innocent girl as well as her neighbour's girlfriend."You Belong with Me" is a song in which the singer loves a boy, but they are just friends, and he is with someone else. Swift commented about the song's background: "I came into the writing session with Liz Rose and said…. Read more on Last.fm.