Fearless Uke tab by Taylor Swift

6 Chords used in the song: F,C,Gm,Bb,Eb,Gm7

Add tab to your SongBook
Tablature / ChordsFont size: A- A A+

Don't know how to read a tab or a chord ? Check out these uke lessons:

Detailed guide to strumming and picking
How to read uke tabs
Reading chord diagrams

A-----------0----------0-1-0-----------0-3-1-0---------
E---1-3-1-3---1-3-1-3---------1-3-1-3----------1-3-1---
C------------------------------------------------------
G------------------------------------------------------(repeat)


F F
There's something 'bout the way

C C Gm Gm
the street looks when it's just rained

Bb Bb C C F F
There's a glow on the pavement. You walk me to the car


C C Gm Gm
and you know I wanna ask you to dance right there

Bb Bb C C
in the middle of the parking lot, yeah


A-----------0----------0-1-0-----------0-3-1-0---------
E---1-3-1-3---1-3-1-3---------1-3-1-3----------1-3-1---
C------------------------------------------------------
G------------------------------------------------------(repeat)


F F
We're driving down the road

C C Gm Gm
I wonder if you know

Bb Bb C C
I'm trying so hard not to get caught up now

F F C C Gm Gm
but you're just so cool, run your hands through your hair

Bb Bb C C
absentmindedly, making me want you!



Chorus:

F F C C Gm Gm
Cause I dunno how it gets better than this

Bb Bb C C
you take my hand and drag me headfirst, fearless

F F C C Gm Gm
and I dunno why, but with you I'd dance

Bb Bb C C
In a storm in my best dress, fearless.


A-----------0----------0-1-0-----------0-3-1-0---------
E---1-3-1-3---1-3-1-3---------1-3-1-3----------1-3-1---
C------------------------------------------------------
G------------------------------------------------------(repeat)


F F
So baby drive slow

C C Gm Gm
'till we run out of road

Bb Bb C C F F
in this one horse town, I wanna stay right here.

C C Gm Gm
In this passenger seat, you put your eyes on me

Bb Bb C C
In this moment now, capture it remember it!


(Chorus)


A-----------0----------0-1-0-----------0-3-1-0---------
E---1-3-1-3---1-3-1-3---------1-3-1-3----------1-3-1---
C------------------------------------------------------
G------------------------------------------------------

A-----------0----------0-1-0-----------0-3-3-3-3-3-----
E---1-3-1-3---1-3-1-3---------1-3-1-3------------------
C------------------------------------------------------
G------------------------------------------------------



Eb Eb F F
Well you stood there with me in my doorway

Gm Gm Gm7 Gm7 Bb Bb C C
My hands shake, I'm not usually this way, but

Eb Eb F F
You pull me in and I'm a little more free

Gm Gm Gm7 Gm7 Bb Bb C C(play 1x)
It's the first kiss, it's flawless, really something...

[no chords]
It's fearless.


A-----------0----------0-1-0-----------0-3-1-0---------
E---1-3-1-3---1-3-1-3---------1-3-1-3----------1-3-1---
C------------------------------------------------------
G------------------------------------------------------(repeat)


(Chorus)

F F C C Gm Gm Bb Bb C C F F(play once)
Oh, oh,yeah, fearless

# Composed by Rose, Swift, Lindsey

 

Tab comments (3)
You must be logged in to join the discussion
or Register

 

lucylucy avatar
:)*
07 Apr 2011
lucylucy avatar
I agree! the Bb works, thank you both :_
07 Apr 2011
julia.sykora729 avatar
really cute! have you tried putting a Bb in place of that B? sounds about right to me. Great job so far! love this song.
20 Mar 2011
About this song

"Fearless" is the fifth and final country single from Taylor Swift's sophomore album, Fearless. The song, being the fifth single, was the least successful single on radio, although it still was a hit peaking at number eight on American country radio charts, however thanks to strong digital sales, the song managed to peak at number nine on the Billboard Hot 100. Swift said the song is about "the fearlessness of falling in love." (Source Fearless Songfacts). The song was unfortunately not released internationally or to pop radio, unlike "Love Story," "You Belong With Me," and "Fifteen.