Violent Pornography Uke tab by System Of A Down

Ukulele Tab without chords.

Add tab to your SongBook
Tablature / ChordsFont size: A- A A+
You must be logged in to access this page
or Register

 

Tab comments (3)
You must be logged in to join the discussion
or Register

 

Boryyyyy avatar
flag for RU(ISO2) (Железногорск)
A|-----------------------------------5-----|
E|------2-3-3h5--653-653-2b~--6-----6-|
C|---2-------------------------------------|
G|-----------------------------------------|
26 Dec 2017
NaaraSophie avatar
A|-----------------------------------4-----|
E|------2-3-3h5--653-653-2b~--6-----6-|
C|---2-------------------------------------|
G|-----------------------------------------|

This way round should be right :)
29 Nov 2017
NaviPika avatar
flag for US(ISO2) (toms river)
Very helpful! Thank you :)
25 Dec 2016
About this song

No information about this song.