Fields Of Gold Uke tab by Sting

Ukulele Tab without chords.

Rate song!
PrintAdd tab to your SongBook

Tablature / Chords (Full Song)

Font size: A- A A+

Artist: 
Album:  unknown
Difficulty: 
3.5
(Intermediate)
Key: D, BmTablature (no chords)
Bm Bm
A|--9------------------9-----5--4-| 3x
E|--7----7-----7-------7----------|
C|--6------------9-----6----------|
G|--7------------------7----------|


Bm Bm G G
A|--2-----5--4-|--2-0----0-2h------|
E|--2----------|--3----------------|
C|--2----------|--2--------------2-|
G|-------------|--0----------------|


G G D D
A|--2---0--0------------------0-----5--4-|
E|--3----------------2---(0)--2----------|
C|--2------------2------------2----------|
G|--0-------------------------2----------|



Bm Bm G G D D
A|--2------------5---4-|-2--0--0---------|
E|--2------------------|-3-----2-------2-|
C|--2------------------|-2-----2-----4---|
G|-----2---2-----------|-0-----2---------|

G G A A
A|------------------------------|
E|--3-----2----2--------0-------|
C|--2----------1-------------2--|
G|--0----------2----------------|


Bm7 Bm7 G G
A|--5----(5)-----4--2-----0------------5-|
E|--2----(2)--------------3------3-------|
C|--2----(2)--------------2--------------|
G|--2----(2)--------------0--------------|


Bm Bm
A|---------5--4-|--2-------------5--4-|
E|--2-----------|--2------------------|
C|--2-----------|--2------------------|
G|--2-----------|-------2----2--------|


G G
A|--2-----0-----0--2h------|--2--0--0-------|
E|--3----------------------|--3-----------2-|
C|--2--------------------2-|--2--------2----|
G|--0----------------------|--0-------------|


D D
A|--0---------5---4-|----------------------|
E|--2---------------|----------------------|
C|--2---------------|----------------------|
G|--2---------------|----------------------|

⇢ Not happy with this tab? View 3 other version(s)

Uke tab by , 10 Nov 2020

Tab comments (0)

No comment yet :(
Need help, a tip to share, or simply want to talk about this song? Start the discussion!

Something to say?
Share your strumming patterns, chords or tips to play this tab! ;)

Top Tabs & Chords by Sting, don't miss these songs!

About this song: Fields Of Gold

No information about this song.

Did you cover Fields Of Gold on your Ukulele? Share your work!
Submit a cover