I Think God Can Explain Uke tab by Splender

7 Chords used in the song: c, d, em, f#, g, b, a

PrintAdd tab to your SongBook
Tablature / ChordsFont size: A- A A+

Don't know how to read a tab or a chord ? Check out these uke lessons:

Detailed guide to strumming and picking
How to read uke tabs
Reading chord diagrams

INTRO
A|8-----8-------8----8h10-8-5h6-6-|
E|--------------------------------|
C|----5-------------5-------------|
G|--3-------------3---------------|

Fill 1 (optional)
A|------0---------|
E|--------1-------|
C|0-2-3-----3h2-0-|
G|----------------|



VERSE
C C D D Em Em
Xxx xxx xxx xxx xxx xxx xxx xxx xxx xxx understand

C C D D Em Em D/F# D/F# G G
Xxx xxx xxx xxx xxx xxx xxx xxx xxx xxx xxx xxx xxx xxx xxx know

C C D D Em Em
X xxx xxx xxx xxx xxx xxx xxx xxx xxx recognize

C C D D Em Em D/F# D/F# G G
Xxx xxx xxx xxx xxx xxx xxx xxx xxx xxx xxx xxx xxx xxx eyes

CHORUS
C C D D G G (fill 1)
Xx'x xxx, xxx xxx, xxx xxx xxx xxx xxx xxx explain

C C D D G G (fill 1)
X xxx xxx, xxx xxx, xxx xxx xxx xxx xxx xxx carried xxxx

C C D D G G (fill 1)
Xx'x xxx xxx xxx xxx xxx xxx xxx xxx xxx explain

C C D D G G (fill 1)
X'x xxx xxx xxx xxx xxx relaxed xxx xxx xxx xxx


Verse 2 (same)

BRIDGE
Low A# A# played 1 octave up, can just play a G G chord if you dont like the sound

xxxx xxx xxxx xxx guessed
C C G G
A|-----1-----1----1-----1-----1--|
E|---1-----1-----1----1-----1----|
C|-3-----3------3----------------|
G|------------------3-----3------|

REPEAT CHORUS

OUTRO (Over Original Chorus)
C C D D G G
A|---8-6-5-3-3-3h5-3-1---1---------1-----------|
E|---------------------1-------------1---------|
C|---------------------------0-2-3-----3h2-0---|
G|---------------------------------------------|


Final Outro (chords or tab powerchords, pick one)
C C B B A A B B G G
a|--6---5---3---5---1-------1--------------------------------|
e|--6---5---3---5---1---1-----1------------------------------|
c|--3---2---0---2---2-----------0-0h2------------------------|
g|--X---X---X---X---X----------------------------------------|

 

Tab comments (0)
No comment yet :(
Need help, a tip to share, or simply want to talk about this song? Start the discussion!

You must be logged in to join the discussion
or Register

 

About this song

No information about this song.