Señorita (Riff) Uke tab by Shawn Mendes

Ukulele Tab without chords.

Add tab to your SongBook
Tablature / ChordsFont size: A- A A+

Don't know how to read a tab or a chord ? Check out these uke lessons:

Detailed guide to strumming and picking
How to read uke tabs
Reading chord diagrams

A|1-2-1-0-1-2--0------2--1----------------|
E|-----------------0----------3-----------|
C|----------------------------------------| X2
G|----------------------------------------|


A|-1-2-1-0---------2--2-2-----------2--2-2|
E|-----------1--1------------1--1---------|
C|----------------------------------------|
G|----------------------------------------|



A|-1--2-1-2-1-------1--2-1-2-1-0--0-0-----|
E|-------------3--------------------------|
C|----------------------------------------|
G|----------------------------------------|

 

Tab comments (1)
You must be logged in to join the discussion
or Register

 

LydiMull avatar
uh.... this only worked for me when I moved each fret number up 1 except for the open.....
02 Jun 2020
About this song

"Señorita" (English: "Young Lady") is a song by Canadian singer Shawn Mendes and Cuban-American singer Camila Cabello. It was released as a single through Island Records on June 21, 2019. The song was written by Mendes, Cabello, Charli XCX, Ali Tamposi, Jack Patterson of Clean Bandit, and its producers Andrew Watt, Benny Blanco, and Cashmere Cat. The song marks Mendes' and Cabello's second collaboration, following "I Know What You Did Last Summer", a song from Mendes' debut album, Handwritten (2015). Read more on Last.fm.