Señorita (Intro) Uke tab by Shawn Mendes

Ukulele Tab without chords.

Add tab to your SongBook
Tablature / ChordsFont size: A- A A+

Don't know how to read a tab or a chord ? Check out these uke lessons:

Detailed guide to strumming and picking
How to read uke tabs
Reading chord diagrams

A|-3-0-----3-2--------3-2-0-2-------------|
E|------0--------3--3---------------------|
C|----------------------------------------|
G|----------------------------------------|



A|-3-------3-2--------3-2-0---------------|
E|---3--0--------3--3-------3-------------|
C|----------------------------------------|
G|----------------------------------------|



A|----3-3-3--------3-3-3------------------|
E|-1----------1-1-------------------------|
C|----------------------------------------|
G|----------------------------------------|



A|------2-3-2-3--2-------2-3-2-3-3-2-0-2--|
E|------------------3---------------------|
C|----------------------------------------|
G|----------------------------------------|

 

Tab comments (8)
You must be logged in to join the discussion
or Register

 

laloy avatar
thank u
02 Jun 2020
Edgarfvr avatar
jdkwjdhskajsufkajdhena
03 May 2020
Edgarfvr avatar
jdkwjdhskajsufkajdhena
03 May 2020
Edgarfvr avatar
jdkwjdhskajsufkajdhena
03 May 2020
Edgarfvr avatar
jdkwjdhskajsufkajdhena
03 May 2020
Ecnalite avatar
flag for PH(ISO2) (Antipolo)
This is great :D
21 Jan 2020
tarteauxpommes avatar
super
03 Jan 2020
mayrarebecca avatar
tysm!
28 Sep 2019
About this song

No information about this song.