No Suprises (Riff) Uke tab by Radiohead

Ukulele Tab without chords.

Add tab to your SongBook
Tablature / ChordsFont size: A- A A+

Don't know how to read a tab or a chord ? Check out these uke lessons:

Detailed guide to strumming and picking
How to read uke tabs
Reading chord diagrams

A|-7-------------------7--------------------|
E|----------8-------------------8-----------|
C|-----7---------7---------7--------7---------|
G|-0-------------------0--------------------|



A|-7---------------------------------3----5--|
E|----------8------------------4------------|
C|-----7--------7-------5--------------------|
G|-0---------------------------------------|

# And then repeat

 

Tab comments (1)
You must be logged in to join the discussion
or Register

 

Jkotter avatar
Intro only
10 Apr 2017
About this song

Incorrect tag for No Surprises Read more on Last.fm.