Decode Uke tab by Paramore

0 Chords used in the song:

Add tab to your SongBook
Tablature / ChordsFont size: A- A A+

Don't know how to read a tab or a chord ? Check out these uke lessons:

Detailed guide to strumming and picking
How to read uke tabs
Reading chord diagrams

Main Riff:

A|--------6~--------6~--|
E|--8-8-8-----8-8-8-----|
C|---6-6-6-6---6-6-6----|
G|----------------------|

A|--------8~--------7~--|
E|--8-8-8-----8-8-8-----|
C|---9-9-9-9---9-9-9----|
G|----------------------|

REPEAT THIS UNTIL BREAKDOWN/FIRST SOLO (1:12)

First Solo/breakdown:

A|-------------------9~--|
E|--8-8-8-8----9-9-9-----|
C|---6-6-6-6----8-8-8----|
G|-----------------------|

Repeat Main Riff until 2:16

Main Solo: I can't figure out the solo part. Sorry.
Breakdown: I can't get this either. Apologies.

Repeat Main Riff


** My first Uke tab. I've owned one for less than a day and had a stab at it after learning guitar, bass and piano. I wanted something small, travel-size and fun.

 

Tab comments (1)
You must be logged in to join the discussion
or Register

 

katemonster avatar
flag for US(ISO2) (Denver, Colorado)
As compared to the song, this sounds incorrect. For a soprano uke in standard tuning, the A string should be played on 4, E on 6, and C on 5.
24 Feb 2010
About this song

This song is by rock group Paramore and was the lead single from the soundtrack of the highly successful film "Twilight" and was released on 4th November 2008, a few weeks before the film's theatre debut.