Wrecking Ball Uke tab by Our Last Night

Ukulele Tab without chords.

Add tab to your SongBook
Tablature / ChordsFont size: A- A A+

Don't know how to read a tab or a chord ? Check out these uke lessons:

Detailed guide to strumming and picking
How to read uke tabs
Reading chord diagrams

# Originally by Miley Cyrus

A|--------------------------------------------------|
E|----1-----1-----1-----1------1-----1-----1-----1--|
C|-2-----2-----2-----2------0-----0-----0-----0-----|
G|--------------------------------------------------|

A|--------------------------------------------------|
E|----0-----0-----0-----0------3-----3-----3-----3--|
C|-0-----0-----0-----0------2-----2-----2-----2-----|
G|--------------------------------------------------|

# We clawed; we chained our hearts in vain
A|--------------------------------------------------|
E|----1-----1-----1-----1------1-----1-----1-----1--|
C|-2-----2-----2-----2------0-----0-----0-----0-----|
G|--------------------------------------------------|

# We jumped, never asking why
A|--------------------------------------------------|
E|----0-----0-----0-----0------3-----3-----3-----3--|
C|-0-----0-----0-----0------2-----2-----2-----2-----|
G|--------------------------------------------------|

# We kissed; I fell under your spell
A|--------------------------------------------------|
E|----1-----1-----1-----1------1-----1-----1-----1--|
C|-2-----2-----2-----2------0-----0-----0-----0-----|
G|--------------------------------------------------|

# A A love, no one can deny
A|--------------------------------------------------|
E|----0-----0-----0-----0------3-----3-----3-----3--|
C|-0-----0-----0-----0------2-----2-----2-----2-----|
G|--------------------------------------------------|

# Don't you ever say I just walked away
A|----1-----1-----1-----1------0-----0-----0-----0--|
E|--------------------------------------------------|
C|-2-----2-----2-----2------2-----2-----2-----2-----|
G|--------------------------------------------------|

# I will always want you
A|----0-----0-----0-----0------1-----1-----1-----1--|
E|--------------------------------------------------|
C|-0-----0-----0-----0------2-----2-----2-----2-----|
G|--------------------------------------------------|

# I can't live a lie, running for my life
A|----1-----1-----1-----1------0-----0-----0-----0--|
E|--------------------------------------------------|
C|-2-----2-----2-----2------2-----2-----2-----2-----|
G|--------------------------------------------------|

# I will always want you
A|----0-----0-----0-----0------1-----1-----1-----1--|
E|--------------------------------------------------|
C|-0-----0-----0-----0------2-----2-----2-----2-----|
G|--------------------------------------------------|

# I came in like a wrecking ball
A|-----------------0------------3--------|
E|-----------------1------------0--------|
C|-----------------0------------0--------|
G|-----------------2------------0--------|

# I never hit so hard in love
A|-------------0------------1----------|
E|-------------1------------1----------|
C|-------------2------------2----------|
G|-------------2------------3----------|

# All I wanted was to break your walls
A|------------------0--------------3--|
E|------------------1--------------0--|
C|------------------0--------------0--|
G|------------------2--------------0--|

# All you ever did was wreck me
A|------------------0------1----------|
E|------------------1------1----------|
C|------------------2------2----------|
G|------------------2------3----------|

# Yeah you wreck me
A|--------0-----1--------------------|
E|--------1-----1--------------------|
C|--------2-----2--------------------|
G|--------2-----3--------------------|

# I put you high up in the sky
A|--------------------------------------------------|
E|----1-----1-----1-----1------1-----1-----1-----1--|
C|-2-----2-----2-----2------0-----0-----0-----0-----|
G|--------------------------------------------------|

# And now you're not coming down
A|--------------------------------------------------|
E|----0-----0-----0-----0------3-----3-----3-----3--|
C|-0-----0-----0-----0------2-----2-----2-----2-----|
G|--------------------------------------------------|

# It slowly turned, you let me burn
A|--------------------------------------------------|
E|----1-----1-----1-----1------1-----1-----1-----1--|
C|-2-----2-----2-----2------0-----0-----0-----0-----|
G|--------------------------------------------------|

# And now we're ashes on the ground
A|--------------------------------------------------|
E|----0-----0-----0-----0------3-----3-----3-----3--|
C|-0-----0-----0-----0------2-----2-----2-----2-----|
G|--------------------------------------------------|

# Don't you ever say I just walked away
A|----1-----1-----1-----1------0-----0-----0-----0--|
E|--------------------------------------------------|
C|-2-----2-----2-----2------2-----2-----2-----2-----|
G|--------------------------------------------------|

# I will always want you
A|----0-----0-----0-----0------1-----1-----1-----1--|
E|--------------------------------------------------|
C|-0-----0-----0-----0------2-----2-----2-----2-----|
G|--------------------------------------------------|

# I can't live a lie, running for my life
A|----1-----1-----1-----1------0-----0-----0-----0--|
E|--------------------------------------------------|
C|-2-----2-----2-----2------2-----2-----2-----2-----|
G|--------------------------------------------------|

# I will always want you
A|----0-----0-----0-----0------1-----1-----1-----1--|
E|--------------------------------------------------|
C|-0-----0-----0-----0------2-----2-----2-----2-----|
G|--------------------------------------------------|

# I came in like a wrecking ball
A|-----------------0------------3--------|
E|-----------------1------------0--------|
C|-----------------0------------0--------|
G|-----------------2------------0--------|

# I never hit so hard in love
A|-------------0------------1----------|
E|-------------1------------1----------|
C|-------------2------------2----------|
G|-------------2------------3----------|

# All I wanted was to break your walls
A|------------------0--------------3--|
E|------------------1--------------0--|
C|------------------0--------------0--|
G|------------------2--------------0--|

# All you ever did was wreck me
A|------------------0------1----------|
E|------------------1------1----------|
C|------------------2------2----------|
G|------------------2------3----------|

# I came in like a wrecking ball
A|-----------------0------------3--------|
E|-----------------1------------0--------|
C|-----------------0------------0--------|
G|-----------------2------------0--------|

# Yeah, I just closed my eyes and swung
A|-----------------------0--------------1-|
E|-----------------------1--------------1-|
C|-----------------------2--------------2-|
G|-----------------------2--------------3-|

# Left me crashing in a blazing fall
A|----------------------0------------3---|
E|----------------------1------------0---|
C|----------------------0------------0---|
G|----------------------2------------0---|

# All you ever did was wreck me
A|------------------0------1----------|
E|------------------1------1----------|
C|------------------2------2----------|
G|------------------2------3----------|

# Yeah you wreck me
A|---------0-----1--------------------|
E|---------1-----1--------------------|
C|---------2-----2--------------------|
G|---------2-----3--------------------|

# I never meant to start a war
A|----------------------------0-----------|
E|----------------------------1-----------|
C|----------------------------2-----------|
G|----------------------------2-----------|

# I just wanted you to let me in
A|-----------------------------0----------|
E|-----------------------------1----------|
C|-----------------------------0----------|
G|-----------------------------2----------|

# And instead of using force
A|-------------------------0--------------|
E|-------------------------0--------------|
C|-------------------------1--------------|
G|-------------------------2--------------|

# I guess I should've let you in
A|----------------------------1-----------|
E|----------------------------1-----------|
C|----------------------------2-----------|
G|----------------------------3-----------|

# I never meant to start a war
A|----------------------------0-----------|
E|----------------------------1-----------|
C|----------------------------2-----------|
G|----------------------------2-----------|

# I just wanted you to let me in
A|-----------------------------0----------|
E|-----------------------------1----------|
C|-----------------------------0----------|
G|-----------------------------2----------|

I guess I should've let you in
A|----------------------------0---0-------|
E|----------------------------0---0-------|
C|----------------------------2---1-------|
G|----------------------------2---2-------|

# Don't you ever say I just walked away
A|-1-----------------0-----------------|
E|-1-----------------1-----------------|
C|-2-----------------2-----------------|
G|-3-----------------2-----------------|

# I will always want you
A|-0-----------------1-----------------|
E|-1-----------------1-----------------|
C|-0-----------------2-----------------|
G|-2-----------------3-----------------|

# I came in like a wrecking ball
A|-----------------0------------3--------|
E|-----------------1------------0--------|
C|-----------------0------------0--------|
G|-----------------2------------0--------|

# I never hit so hard in love
A|-------------0------------1----------|
E|-------------1------------1----------|
C|-------------2------------2----------|
G|-------------2------------3----------|

# All I wanted was to break your walls
A|------------------0--------------3--|
E|------------------1--------------0--|
C|------------------0--------------0--|
G|------------------2--------------0--|

# All you ever did was wreck me
A|------------------0------1----------|
E|------------------1------1----------|
C|------------------2------2----------|
G|------------------2------3----------|

# I came in like a wrecking ball
A|-----------------0------------3--------|
E|-----------------1------------0--------|
C|-----------------0------------0--------|
G|-----------------2------------0--------|

# Yeah, I just closed my eyes and swung
A|-----------------------0--------------1-|
E|-----------------------1--------------1-|
C|-----------------------2--------------2-|
G|-----------------------2--------------3-|

# Left me crashing in a blazing fall
A|----------------------0------------3---|
E|----------------------1------------0---|
C|----------------------0------------0---|
G|----------------------2------------0---|

# All you ever did was wreck me
A|------------------0------1----------|
E|------------------1------1----------|
C|------------------2------2----------|
G|------------------2------3----------|

# Yeah you, you wreck me
A|----------0---------1---------------|
E|----------1---------1---------------|
C|----------2---------2---------------|
G|----------2---------3---------------|

# Yeah you, you wreck me
A|----------0---------1---------------|
E|----------1---------1---------------|
C|----------2---------2---------------|
G|----------2---------3---------------|

# http://ukulily-filly.blogspot.com/2012/05/free-ukulele-tabs-with-lyrics.html

 

Tab comments (0)
No comment yet :(
Need help, a tip to share, or simply want to talk about this song? Start the discussion!

You must be logged in to join the discussion
or Register

 

About this song

No information about this song.