Nyan Theme Uke tab by Nyan Cat

Ukulele Tab without chords.

2.8/10
PrintAdd tab to your SongBook

Tablature / Chords (

Font size: A- A A+

Artist: 
Album:  unknown
Key: unknownTablature (no chords)
|----------------------------------------------------------------------------------|
|-----------------------------------------------------------------------------|
|-----------------------------------------------------------------------------|
|-11---13--6--8---6--7--6--4----4---6--7---7--6--4--6--7-11--13--8--11--6-8--4-6-4-|

|--------------------------------------------------------------------------------|
|----------------------------------------------------------------------------|
|----------------------------------------------------------------------------|
|-8---11---13--8--11--6--8--4--6--7--6--4--4--6--7---4--6--8--11--6--8--6--4--6--|

|----------------------------------------------------------------------------------|
|-----------------------------------------------------------------------------|
|-----------------------------------------------------------------------------|
|-11---13--6--8---6--7--6--4----4---6--7---7--6--4--6--7-11--13--8--11--6-8--4-6-4-|

|--------------------------------------------------------------------------------|
|----------------------------------------------------------------------------|
|----------------------------------------------------------------------------|
|-8---11---13--8--11--6--8--4--6--7--6--4--4--6--7---4--6--8--11--6--8--6--4--6--|

-----------------------------------------------------------------------------|
---------------4---------4--------------------------------------4-----------|
------------6---------6--------------------------------------6--------6-----|
-4---4--4---------4---------4--6--8--4--9--8--9--11---4---4---------4-----9--|

----------------------------------------------------------------|
----------------------------4---------4--------------4--------4-|
---------6--------6------6---------6--------------------6--6----|
-8--6-4-----8--9-----4---------4---------4--4--6--8-------------|

|----------------------------------------------------------------------------|
|------------4-----------------------------------4---------4----------------|
|---------6--------6--------------------------6---------6-------------------|
|-4---4---------4-----9--8--9--11--4---4---4---------4---------4--6--8--4-9--|

|---------------------------------------------------------------------------|
|----------------------4--------------------------------------4---------4--|
|-------------------6--------6-------------6--------6------6---------6-----|
|-8--9--11---4---4---------4-----9--8--6-4-----8--9-----4---------4---------|

Uke tab by , 22 Nov 2011

Tab comments (0)

No comment yet :(
Need help, a tip to share, or simply want to talk about this song? Start the discussion!

Something to say?
Share your strumming patterns, chords or tips to play this tab! ;)

Top Tabs & Chords by Nyan Cat, don't miss these songs!

About this song: Nyan Theme

No information about this song.

Did you cover Nyan Theme on your Ukulele? Share your work!
Submit a cover