Neko Atsume Theme (Riff) Uke tab by Neko Atsume

Ukulele Tab without chords.

Add tab to your SongBook
Tablature / ChordsFont size: A- A A+

Don't know how to read a tab or a chord ? Check out these uke lessons:

Detailed guide to strumming and picking
How to read uke tabs
Reading chord diagrams

Capo on second fret


A|-----0-5---0-5----------0-5---0-5------7-5------|
E|---3-----3------------3-----3--------------8-7--|
C|------------------------------------------------|
G|------------------------------------------------|


A|-----0-5---0-5----------0-5---0-5---------------10-|
E|---3-----3------------3-----3---------8-10--0-8----|
C|---------------------------------------------------|
G|---------------------------------------------------|

Repeat! short and sweet tune for yall

 

Tab comments (0)
No comment yet :(
Need help, a tip to share, or simply want to talk about this song? Start the discussion!

You must be logged in to join the discussion
or Register

 

About this song

No information about this song.