Twinkle Twinkle Little Star Uke tab by Miscellaneous

Ukulele Tab without chords.

8.7/10
PrintAdd tab to your SongBook

Tablature / Chords (Full Song)

Font size: A- A A+

Artist: 
Album:  unknown
Key: unknownTablature (no chords)
Can't believe I can't find this on here yet !

A|---------0-0------------------------|
E|------------------------------------|
C|-0-0-----------5-5--4-4--2-2--0-----|
G|-----0-0-----0----------------------|

A|------------------------------------|
E|------------------------------------|
C|-7-7--5-5--4-4--2--7-7--5-5--4-4--2-|
G|------------------------------------|

A|---------0-0------------------------|
E|------------------------------------|
C|-0-0-----------5-5--4-4--2-2--0-----|
G|-----0-0-----0----------------------|

The End !

(sorry it's not great but it'll do, won't it? )

Uke tab by , 19 Feb 2010

Tab comments (3)

Something to say?
Share your strumming patterns, chords or tips to play this tab! ;)
Filter by:
Adeehenry avatar
nice
10 Dec 2020
Comment
Mkinkt avatar
flag for AU(ISO2) (Sydney)
awesome mate Make more :)
18 Feb 2012
Comment
acrosstheu avatar
Sounds great!
19 Feb 2010
Comment

Top Tabs & Chords by Miscellaneous, don't miss these songs!

About this song: Twinkle Twinkle Little Star

No information about this song.

Did you cover Twinkle Twinkle Little Star on your Ukulele? Share your work!
Submit a cover