Haggstrom Uke tab by Minecraft

Ukulele Tab without chords.

7.7/10
PrintAdd tab to your SongBook

Tablature / Chords (Full Song)

Font size: A- A A+

Artist: 
Album:  unknown
Key: unknownTablature (no chords)
A|-3------3------0----------------------------|
E|-3------3----------------------------------|
C|---2-0-----2-0-------------------------------|
G|----------------------------------------|

A|-3------3----------------------------------|
E|-3------3----------------------------------|
C|---2-0-----2-0-------------------------------|
G|----------------------------------------|



A|-3--2-------3--2-----0-----------------------|
E|-3--3--3----3--3--3---------------------------|
C|-------4----------4-----------------------|
G|----------------------------------------|

A|-3--2-------3--2----------------------------|
E|-3--3--3----3--3-----------------------------|
C|-------4----------0-----------------------|
G|----------------------------------------|

Uke tab by , 09 Jan 2020

Tab comments (0)

No comment yet :(
Need help, a tip to share, or simply want to talk about this song? Start the discussion!

Something to say?
Share your strumming patterns, chords or tips to play this tab! ;)

Top Tabs & Chords by Minecraft, don't miss these songs!

About this song: Haggstrom

No information about this song.

Did you cover Haggstrom on your Ukulele? Share your work!
Submit a cover