Stolen Dance Uke tab by Milky Chance

Ukulele Tab without chords.

Add tab to your SongBook
Tablature / ChordsFont size: A- A A+

Don't know how to read a tab or a chord ? Check out these uke lessons:

Detailed guide to strumming and picking
How to read uke tabs
Reading chord diagrams

Dm/Am7-Bb-F-A

#INTRO

A|---0-|---0-|---1-|---1-|---0-|--0-|---0-|--0-|
E|--1--|--0--|--1--|--1--|--1--|-1--|--0--|-0--|
C|2----|0----|2----|-----|0----|----|1----|----|
G|-2---|-0---|-3---|-3---|-2---|2---|-2---|2---|

#VERSO1

A|-----|---0-|---------|0---------|------------|
E|1--1-|0----|1--1-1-1-|1--1-1-3-1|0--0---0-3-0|
C|2-2-2|0-0-0|2-2-2-2-2|0-0-0-0---|1-1-1-1-----|
G|2----|0----|3--------|2---------|2-----------|

A|-----|---0-|0--------|0---------|------------|
E|1--1-|0----|1--1-1-1-|1--1-1-3-1|0--0---0-3-0|
C|2-2-2|0-0-0|2-2-2-2-2|0-0-0-0---|1-1-1-1-----|
G|2----|0----|3--------|2---------|2-----------|


A|-----|---0-|---------|0---------|------------|
E|1--1-|0----|1--1-1-1-|1--1-1-3-1|0--0---0-3-0|
C|2-2-2|0-0-0|2-2-2-2-2|0-0-0-0---|1-1-1-1-----|
G|2----|0----|3--------|2---------|2-----------|

A|-----|---0-|0--------|0--------|------------|
E|1--1-|0----|1--1-1-1-|1--1-1-3-|0--0---0-3-0|
C|2-2-2|0-0-0|2-2-2-2-2|0-0-0-0--0|1-1-1-1----|
G|2----|0----|3--------|2--------|2-----------|

A|----------------|
E|----------------|
C|1-1-1-1-1-1-1-0-|
G|----------------|

#ESTRIBILLO

A|1-------1|0-------0|0----------|-----|-----|
E|1--1---1-|1--1---1-|0--0--3-3-1|1--1-|0--0-|
C|2-2--2---|0-0--0---|1-1--------|2-2-1|0-0-0|
G|3--------|2--------|2----------|2----|0----|

A|1-------1|0-------0|0----------|-----|-----|
E|1--1---1-|1--1---1-|0--0--3-3-1|1--1-|0--0-|
C|2-2--2---|0-0--0---|1-1--------|2-2-1|0-0-0|
G|3--------|2--------|2----------|2----|0----|

A|1-------1|0-------0|0----------|-----|-----|
E|1--1---1-|1--1---1-|0--0--3-3-1|1--1-|0--0-|
C|2-2--2---|0-0--0---|1-1--------|2-2-1|0-0-0|
G|3--------|2--------|2----------|2----|0----|

A|1-------1|0-------0|0----------|-----|-----|
E|1--1---1-|1--1---1-|0--0--3-3-1|1--1-|0--0-|
C|2-2--2---|0-0--0---|1-1--------|2-2-1|0-0-0|
G|3--------|2--------|2----------|2----|0----|

A|-----|------|
E|1--1-|0--0--|
C|2-2-2|0-0-0-|
G|2----|0-----|

#Es un arpegio y todas las notas son corcheas. En algunas partes hay guiones entre las notas, si no es necesario el guión(para no confundir notas, ejemplo: 1-1, 11) significará una pausa.


# It's an arpeggio and all the notes are eighth notes. In some parts there are scripts between the notes, if the script is not necessary (so as not to confuse notes, example: 1-1, 11) it will mean a pause.

 

Tab comments (0)
No comment yet :(
Need help, a tip to share, or simply want to talk about this song? Start the discussion!

You must be logged in to join the discussion
or Register

 

About this song

"Stolen Dance" is a song by German duo Milky Chance, released in 2013 in Germany. The single has reached number one in Austria, France, Belgium (Wallonia), Switzerland, Poland, Czech Republic and Hungary. A 4-track Stolen Dance EP (including the single "Down by the River") was released by Lichtdicht Records and Republic Records on 9 May 2014. The song also placed at number 4 in Triple J's Hottest 100, 2014. Read more on Last.fm.