Everything Uke tab by Michael Buble

9 Chords used in the song: D, E7, G, A7, D7, D6, Bm, F#, A

Add tab to your SongBook
Tablature / ChordsFont size: A- A A+

Don't know how to read a tab or a chord ? Check out these uke lessons:

Detailed guide to strumming and picking
How to read uke tabs
Reading chord diagrams

# [Intro]

A--9---9-7-5-5----9---9-7-5-5-
E-5-5-4--7---5---5-5-4--7---5-
C-----------------------------
G-----------------------------

A--9---9-7-5---9-7-5-5----
E-5-5-4--4--3-6--6---5----
C-------------------------
G-------------------------


# [Verse 1]
D D
You're a falling star
E7 E7
You're the getaway car
G G
You're the line in the sand
A7 A7 D D
When I go too far
D D
You're the swimming pool
E7 E7
On an august day
G G A7 A7 D D
And you're the perfect thing to say

D D E7 E7
And you play it coy but it's kinda cute
G G A7 A7 D D
Oh when you smile at me you know exactly what you do
D D E7 E7
Baby don't pretend that you don't know it's true
G G A7 A7 D D
Cause you can see it when I look at you


# [Pre-Chorus]
G G A7 A7 D D
And in this cra-------zy life
G G A7 A7 D D
And through these cra-------zy times
D7 D7 G G
It's you it's you
A7 A7 D6 D6
You make me sing
E7 E7
You're every line
G G
You're every word
D D
You're everything

You're a carousel
You're a wishing well
And you light me up
When you ring my bell
You're a mystery
You're from outer space
You're every minute of my every day

And I can't believe that I'm your man
And I get to kiss you baby just because I can
Whatever comes our way we'll see it through
And you know that's what our love can do

And in this crazy life
And through these crazy times
It's you, it's you
You make me sing
You're every line
You're every word
You're everything


A--------------9-7-5---5-5------5--5/7-5-5---------
E-------------5-----7-5----7-5/7-7-----------------
C-2-2-2-2-4/6------------------------------2---2-2-
G-------------------------------------------2-2----

A-5-5-4-4-2-2---2-7/9-5---5-10h12-10---2-7h9-7-5---
E------------5-4-------3-6------------5------------
C------------------------------------2-------------
G--------------------------------------------------



D D Bm Bm E7 E7 G G A7 A7 D D
So, la, la, la, la, la, la, la
D D Bm Bm E7 E7 G G A7 A7 D D
So, la, la, la, la, la, la, la

G G A7D D
And in this cra------zy life
G G A7 A7 D D
And through these cra-------zy times
D7 D7 G G
It's you it's you
A7 A7 D6 D6
You make me sing
E7 E7
You're every line
G G
You're every word
D D
You're everything

F# F#
You're every song
A A
And I sing along
A7 A7 D D
Cause you're my everything


Yeah, yeah

So la la la la... la la la

A--9---9-7-5-5---9---9-7-5-5---
E-5-5-4--7---5--5-5-4--7---5---
C------------------------------
G------------------------------

So la la la la... la la-la-la... la-la-la

A--9---9-7-5---9-7-5-5----
E-5-5-4--4--3-6--6---5----
C-------------------------
G-------------------------

 

Tab comments (0)
No comment yet :(
Need help, a tip to share, or simply want to talk about this song? Start the discussion!

You must be logged in to join the discussion
or Register

 

About this song

No information about this song.