Orion Uke tab by Metallica

Ukulele Tab without chords.

6/10
PrintAdd tab to your SongBook

Tablature / Chords (Full Song)

Font size: A- A A+

Artist: 
Year:  1986
Key: unknownTablature (no chords)
||--7--------------|(7)--------------|-5--------------|-6-----------------||
||--0--------------|(0)--------------|----------------|-------------------||
||o----------------|-----------------|----------------|-6----------------o||
||o----------------|-----------------|-4--------------|------------------o||

||--7-----7----7---|-7-----7-----7---|-5-----5-----5-5-|-6-----6-----6-6--||
||----0-0---0-0--0-|---0-0---0-0---0-|---7-7---7-7-----|---7-7---7-7------||
||o-7-----7----7---|-6-----7-----7---|-6-----6-----6-6-|-6-----6-----6-6-o||
||o----------------|-----------------|-----------------|-----------------o||

||----------------------------------|---------------------------------|
||--0-0-0-0-----0-0-0-0-----0-0-0-0-|-----0-0-0-0-0---0-0-1---1-1-0---|
||o---------------------------------|---------------------------------|
||o---------2-----------4-----------|-5-------------------------------|

|---------------------------------|----------------------------------||
|-0-0-0-0-----0-0-0-0-----0-0-0-0-|-----0-0-0-0-0---0-0-1---1-1-0----||
|---------------------------------|---------------------------------o||
|---------5-----------4-----------|-2-------------------------------o||

||----------0-----------2-----------|-3-------------------------------|
||--0---0-0-----0-0-0-0-----0-0-0-0-|-----0-0-0-0-0---0-0-1---1-1-0---|
||o---------4-----------4-----------|-7-------------------------------|
||o---------2-----------4-----------|-5-------------------------------|

|---------3-----------2-----------|-0--------------------------------||
|-0---0-0-----0-0-0-0-----0-0-0-0-|-----0-0-0-0-0---0-0-1---1-1-0----||
|---------7-----------4-----------|-4-------------------------------o||
|---------5-----------4-----------|-2-------------------------------o||

H P H P H P H P
||------------------------------|(-)---------------------------|
||--------2-3-2---2-2-3-2-------|------2-3-2---2-2-3-2---------|
||o-------------4---------4-----|-4----------4---------4-------|
||o-----------------------------|------------------------------|

|-(-)-------------------------|-------------------------------||
|-----------3---3---2---------|----------3---3---2---2--------||
|--4--------------------2-----|------------------------------o||
|-----------------------------|------------------------------o||

s s s s s S H
|---------------------------|------------------------|---------------------|
|-2-0--3--3--5--5-----------|------------------3--5--|---5--5--3--3-----3--|
|---------------------------|------------------------|---------------6-----|
|-----l-----l-----l4--4-l7--|-7--9--9--9----9--------|---------------------|

S S S S S
|---------------------|------------------------|----------------------------|
|-3-------------3-----|-------5---5------5-----|----------------------------|
|-----6---------------|-9----------------------|----------------------------|
|(--)----7---------7--|-7-------------------4--|-7--7--7--7--7--7--7----7-9-|

S S S S
|---------------------------------------------------------------|-------------------------|
|----------------------------------------------------|---------------------|
|----------------------------------------------------|---------------------|
|-12--11--9--12--11--9--12--11--9--12--11--9--12--11--9--12--9--|-14----14----14--14---9--|

S P S P
|------------------------------|-------------------------------------------|
|--------------------5---------|-------------------------------------------|
|------------------------------|-------------------------------------------|
|--9-----9-----9--7-----7--9---|--9----9---9--7--4---7----4----------------|

S S
|------------------------------------------|----------------------------------------|
|--------------------------------------|-----------------------------------|
|--------------------------------------|-----------------------------------|
|-4--7--11--4--7--11--4--7--11--4--7--11---|-14----------14----14---------11---12---|

|-----------------------------------------------|-----------------------------7---|
|----------------------------------------|-----5---3-5-2-3-2-------3-2-----|
|----------------------------------------|---------------------------------|
|-14---12---11---12---11--12--9--11--7--9--5-7--|-4-5---4-------------------------|

S P H H P H P H P H P H P
|-5-----5--7------7--7-5----|-5-7---5--4--5-|------------------------------|
|---------------------------|---------------|------------------------------|
|---------------------------|---------------|------------------------------|
|----4-------------------4--|---------------|-4-6-4-6-4-6-4-6-4-6-4--------|

|-2------2-2-2-2-|-0------0-0-0-0-|-4------4-4-4-4-|-2--------|(2)---------|
|----------------|----------------|-2------2-2-2-2-|-0--------|(0)---------|
|-6------6-6-6-4-|-6------5-5-4-4-|-6------5-5-5-5-|-4--------|(4)---------|
|-4--------------|----------------|----------------|----------|------------|

|---11-'------------|-(11-)-----11-'`--9-11--|-9-9-9-9-7-7-|-9--7--7-9-11--------|
|------------------|---------------------|---9-9-9-7-7-|-9--7--7-9-12--------|
|---11- ------------|-(11)------11-'---9-11--|-9-9-9-9-8-8-|-9--8--8-9-11--------|
|---9/-------------|-(9)------9/\---6-9--|-6-----------|--------h-sl--------|

s SSS
|----------------|(-)--------------------|----------------|(-)-------------|
|----------------|--------5----------5---|----2--5--5-----|-5--------------|
|--6-------------|-6--4-6----------------|----------6-----|(6)---------4---|
|----------------|----------4-6---4----4-|-6--------------|----------------|

SSSS H s
|----------------|--------------------|-------------|----------------------|
|----------------|--------------------|---5-5-5-4-4-|-5--4--4-5------------|
|--4-------------|-4------4--------4--|-------------|-----------------4-4-4|
|-(-)------------|(-)------------6----|-6-----------|-----------4----------|

|--------------------|---------------------|--------|----------------------|
|--------------------|------------5-4--5---|-5------|-5--------------------|
|--4--4-4-4--4-------|-2--2--2-------------|--------|(-)----------4-4-4-4-4|
|---------------6--6-|----------4--------6-|-6------|(6)-------------------|

S S P
|--------------------|---------------------|--------|----------------------|
|--------------------|------------5-4--5---|--------|----------------------|
|-4--4-4-4--4--------|-2--2--2-------------|--------|----------------------|
|--------------6--6--|----------4--------6-|-6------|(6)---------4----(4)-2|

|--4-----------------|-4-------------------|-------------|-----------------|
|--2-----------------|-2--------------0-0--|-2-----------|-2------2--------|
|--------------------|(-)------------------|-------------|(-)--------------|
|--2-----------------|(2)-----------------2|-------------|-----------------|

||------------------------|----------------------||
||-------5---5----5-------|--------4------4---4--||
||o-4--6--------------4---|-2--2-----4--4-------o||
||o--------6---6----6---6-|------4----------4---o||

|------------------------|--------------------------|
|-------5---5----5-------|---------2-4--------4---4-|
|--4--6--------------4---|-2-2-2-2-------4--4-------|
|---------6---6----6---6-|-------------4--------4---|

||--------------------|-------------------||
||--5-----------------|----------4---5----||
||o---------4-------4-|-2----2-4---------o||
||o-------6---6---6---|----------------6-o||

|-------------------------------------|----------------------------------------|
|-5--4--5--------4--5-----------------|----------4--5-----------------------|
|-------------------------------------|-------6-----------------------------|
|----------4--6--------4--6--7--9--6--|-7--9-----------4--6--7--9--11--12--14--|

P P S S
|----------------------------------------------|-------------------------------|
|-------------------------------------|-------5-----5-----------------|
|-------------------------------------|----------6--------------------|
|-14-----14---14---11--14--11---11--14--11--9--|-6--4-----------4--4--9-4------|

s H H
|------------------------|-4-5-7-----------------------|
|-2---2-4-5--5-----5--4--|--l----2-4-5-----------5-4-5-|
|------------------------|-----------------------------|
|--------------4---------|-------------4-6--4--4-------|

SS P SS P
|---7------------------------|-------------------------|
|-4-------------------2--2---|------------------2--2---|
|----------------------------|-------------------------|
|-----4--2-4-4--(4)-2------2-|-4-2-4-2-4--(4)-2--------|

S S P P P P
|--------------|------------------------------|------------------------------|
|--------------|----5-5---3---2-3-5-------5---|-----5-------5-------5----3---|
|-4--------4---|-4------4---4-----------------|------------------------------|
|---'----------|(-)-----------------4-5-4---4-|-5-4---4-5-4---4-5-4---4------|

P
|-------------------------------|-5-----5----------------|
|--3------------------5---------|-----3----3---3-0---3-0-|
|-(-)----2----------------------|------------------------|
|----4-5----5-4-5-5-4---4-5-4-5-|---4----4---4-----4-----|

P s
|-------------------------|-------------------------------|
|-----2-----2---2---2---2-|-------------------------------|
|-----------------2-------|-6---6--4-6----4-6--6--4-2-4-2-|
|-5-2---5-2---2-------2---|---'--------'`-----------------|

S S S S S S S S S S P
|-0-------|------------------------|-------------------------------|
|-0-------|-5----5----5----5---5---|-5---5---5---5---5---5----5--2-|
|---------|------------------------|-------------------------------|
|-2-------|------------------------|-------------------------------|

S P S P S P S P
|------------------------------------------|-----------------------------------|
|----2-5--2-5---5--5--2----2-5--2-5---5--2-|----2-----2-----2-----2-----2------|
|-4---------------------4------------------|-----------------------------------|
|------------------------------------------|7--4--7--4--7--4--7--4--7--4--7--4-|

S S S S
|--------------9--------|------------------------|
|-----------------------|(--)--------------------|
|-----------------------|------------------------|
|-7----7---7---4-7--7---|-7-----7---7-------7--4-|

P P P P P P P P
|------------------------------------|-------------------------|
|------5--2-5--2-----------5---5-----|-------------------------|
|----------------4-2-4-2---------6-5-|-4-2-4-2---4-2-4-2---2---|
|-7--4-------------------4---4-------|---------4---------4-----|

H s H s S S P S S
|--------------------------------|---------44-44---44----------------44-------------|
|-5----------5-------------0----|----------------------22--22-----------22----|
|-----2-4-6------2-----(-)--3---|---------------------------------------------|
|---4----------4----4---4--l-11--|-21--11-------------11---------16------16-----16--|

S S S S S S S
|-44-----44-----44-----44-----44-----44-----44-----44-44-|
|-------------------------------------------------|
|-------------------------------------------------|
|----16-----16-----16-----16-----16-----16-----16--------|

S S
|--------44------------44------------44------------44-44-----|
|-----------------------------------------------------|
|-----------------------------------------------------|
|-21-11-----11--21-11-----11--21-11-----11--21-11------------|

H H S H H H P
|-------------------------------|---------------------------------|
|---22--22------22--22------22--|-----22--22------22--22----------|
|-------------------------------|-----------------------------2---|
|-----------2-4---------2-4-----|-2-4---------2-4---------2-4---6-|

P P P P P P P P P P P
|-----------------------------------|-----------------------------|
|-----------------------------------|--------------------0--0-----|
|-2-----2-----2-----2-----2-----2---|-----------------------------|
|---6-4---6-4---6-4---6-4---6-4---6-|-4-2-0-4-2-0-4-2-2-----------|

Uke tab by , 10 Oct 2014

Tab comments (0)

No comment yet :(
Need help, a tip to share, or simply want to talk about this song? Start the discussion!

Something to say?
Share your strumming patterns, chords or tips to play this tab! ;)

Top Tabs & Chords by Metallica, don't miss these songs!

About this song: Orion

No information about this song.

Did you cover Orion on your Ukulele? Share your work!
Submit a cover