One (Intro) Uke tab by Metallica

Ukulele Tab without chords.

Add tab to your SongBook
Tablature / ChordsFont size: A- A A+

Don't know how to read a tab or a chord ? Check out these uke lessons:

Detailed guide to strumming and picking
How to read uke tabs
Reading chord diagrams

Original tuning : +2.0 step(s) [ ? ]
A|----5-----1---1-------5-----1---1--------5-----1---1-------5-----1---1--6--|
E|-3-----3------------------------------3-----3------------------------------|
C|-------------------3-----3------------------------------3-----3------------|
G|---------------------------------------------------------------------------|

A|----5------1---1-------5-----1---1-------5-----1---1----------------|
E|-3-----3------------1-----1--------------------------------3-----3--|
C|--------------------------------------3-----3-----------0-----2-----|
G|--------------------------------------------------------------------|

 

Tab comments (2)
You must be logged in to join the discussion
or Register

 

cmrc avatar
flag for CL(ISO2) (santiago)
muy bueno
20 Dec 2014
ThrashUke avatar
flag for US(ISO2) (Madison)
It should be
A----5-----1-
E-3-----3----

You're adding an extra note after that which is unnecessary. Otherwise this is nice and accurate.
08 Nov 2013
About this song

"One" was written in November 1987 by Metallica's principal composers