Fuel Uke tab by Metallica

Ukulele Tab without chords.

Add tab to your SongBook
Tablature / ChordsFont size: A- A A+

Don't know how to read a tab or a chord ? Check out these uke lessons:

Detailed guide to strumming and picking
How to read uke tabs
Reading chord diagrams

P     P     P     P     P     P    
|-----------------|-----------------|
|-3-----3-----3---|-3-----3-----3---|
|---4-4---4-4---4-|---4-4---4-4---4-|
|-----------------|-----------------|

|-2=--------------|-----------------|
|-0=--------------|-----------------|
|-----------------|-----------------|
|-----------------|-----------------|
P P P P P P P P P s s s
|-----------------|-----------------|-----------------|-----------------|
|-3-----3-----3---|-3-----3-----3---|-3-----3-----3---|-3-5-5-5-5-3-3-5-|
|---4-4---4-4---4-|---4-4---4-4---4-|---4-4---4-4---4-|-7-9-9-9-9-7-7-9-|
|-----------------|-----------------|-----------------|-----------------|

|-----------------|-----------------|-----------------|-10-12-12-12-12-10-5s7-|
|-3p0-0-3p0-0-3p0-|-3p0-0-3p0-0-3p0-|-3p0-0-3p0-0-3p0-|-3-s5--5--5--5-s3------|
|-----------------|-----------------|-----------------|-----------------------|
|-----------------|-----------------|-----------------|-----------------------|
H H H s
|-----------------|-----------------|-----------------|-----------------|
|-5-5-5-3---------|-5-5-5-3---------|-5-5-5-3---------|-5-5-5-3---------|
|--------^--4-2-4-|--------^--4-2-4-|--------^--4-2-4-|--------^---4-2--|
|-----------------|-----------------|-----------------|-----------------|

|-2~~~~|-5~~~~~~~~~~~~|-2~~~~~~~~~~~~~~~~~~~~~~~|~~~~~~~~~~~~~~~~~----|
|-0~~~~|-3~~~~~~~~~~~~|-0~~~~~~~~~~~~~~~~~~~~~~~|~~~~~~~~~~~~~~~~~x-x-|
|------|--------------|-------------------------|---------------------|
|------|--------------|-------------------------|---------------------|

|-2~~~~|-5~~~~~~12-h14--|----------------14--12-h14--|--------------14--12-s-|
|-0~~~~|-3~~~~~~------|-12--12----10---------------|-12--12----10-----------|
|------|--------------|-------x---^-------------|-------x---^---------|
|------|--------------|-14--14--x-12-^-------------|-14--14--x-12-^---------|

|-2---------------|-9-----------9---|-8-----------8---|-7-----------5h7-|
|-0---------------|-7-----------7---|-6-----------6---|-5---------------|
|-----------------|-11-----------11---|-10-----------10---|-9---------------|
|-----------------|-----------------|-----------------|-----------------|

|-2---------------|-9-----------9---|-8-----------8---|-7-----------5h7-|
|-0---------------|-7-----------7---|-6-----------6---|-5---------------|
|-----------------|-11-----------11---|-10-----------10---|-9---------------|
|-----------------|-----------------|-----------------|-----------------|

|-2~~~~~~~~~~~~~~~~~~~|-5~~~~~~~~~~~~|
|-0~~~~~~~~~~~~~~~~~~~|-3~~~~~~~~~~~~|
|---------------------|--------------|
|---------------------|--------------|
s
|-----------2----1----|-5---------2--|
|---------------------|-3------------|
|-4-------------------|--------------|
|---------------------|--------------|

|-2~~~~~~~~~~~~~~~~~~~~~~~~~~~~~~~~~~~~~~~~----|
|-0~~~~~~~~~~~~~~~~~~~~~~~~~~~~~~~~~~~~~~~~x-x-|
|----------------------------------------------|
|----------------------------------------------|
H s
|-------------------------|--------------------|
|-------------------5-----|---------------5----|
|-9--9--x-7-^-------------|-9--9--x-7-^--------|
|-9--9--x-7-^----4-----4--|-9--9--x-7-^4-------|

|-2---------------|-9-----------9---|-8-----------8---|-7-----------5h7-|
|-0---------------|-7-----------7---|-6-----------6---|-5---------------|
|-----------------|-11-----------11---|-10-----------10---|-9---------------|
|-----------------|-----------------|-----------------|-----------------|
s ~~~~~~~~~~~~~~~ ~~~~~~~~~~~~~~~ P H
|-----------------|-9---------------|-8---------------|-----------------|
|-----------------|-----------------|-6---------------|-----------------|
|-4---------------|-----------------|-----------------|-------------2-4-|
|-------------2---|-4---------------|-----------------|----5-0-5--------|
~~~~~~~~~~~~~~~ ~~~~~~~~~~~~~~~~~ ~ ~ ~~~ ~~~~~~~~~ ~ ~ ~~~ ~~~~~~~~~
|-----------------|-----------------|-----------------|-----------------|
|-----------------|-----------------|-3-2---3---------|---5-------------|
|-4---------------|-----------------|-4-2---4---------|-4-2---4---------|
|-----------------|-----------------|-----------------|-4-----4---------|

|-7-5---7-7-------|-7-5---7-7-----0-|-7-5-0-7-7---0-0-|-7-5-0-7-7---0---|
|-----0-------0-0-|-----0-------0---|-----------------|---------------0-|
|-----------------|-----------------|-----------------|-----------------|
|-----------------|-----------------|-----------------|-----------------|

|-2~~~~~~~~~~~~~~~|~~~~~~~~~~~~~~~~~|-0~~~~~~~~~~~~~~~|~~~~~~~~~~~~~~~~~|
|-0~~~~~~~~~~~~~~~|~~~~~~~~~~~~~~~~~|-----------------|-----------------|
|-----------------|-----------------|-4---------------|-----------------|
|-----------------|-----------------|-----------------|-----------------|

|-7-5---7-7-------|-7-5---7-7-----0-|-7-5-0-7-7---0-0-|-7-5-0-7-7---0---|
|-----3-------3-3-|-----3-------3---|-----------------|---------------0-|
|-----------------|-----------------|-----------------|-----------------|
|-----------------|-----------------|-----------------|-----------------|

|-5~~~~~~~~~~~~~~~|~~~~~~~~~~~~~~~~~|-7~~~~~~~~~~~~~~~|~~~~~~~~~~~~~~~~~|
|-3~~~~~~~~~~~~~~~|~~~~~~~~~~~~~~~~~|-5~~~~~~~~~~~~~~~|~~~~~~~~~~~~~~~~~|
|-----------------|-----------------|-----------------|-----------------|
|-----------------|-----------------|-----------------|-----------------|

|-7-5---7-7-------|-7-5---7-7-----0-|-7-5-0-7-7---0-0-|-7-5-0-7-7---0-3-|
|-----0-------0-0-|-----0-------0---|-----------------|-----------------|
|-----------------|-----------------|-----------------|-----------------|
|-----------------|-----------------|-----------------|-----------------|
P P P P
|-----------------|-----------------|-----------------|-----------------|
|-----------------|-----------------|-----------------|-----------------|
|-4-2---4-4-------|-4-2---4-4-------|-4-2---4-4-------|-4-2---4-4-------|
|-----------------|-----------------|-----------------|-----------------|
P P P P s
|-----------------|-----------------|-----------------|-----------------|
|-0-----0-0-------|-0-----0-0-------|-2-0---2-2-------|-2-0---2-2----2--|
|---2-0-------0-0-|---2-0-------0-2-|-----2-------2-2-|-----2-----------|
|-----------------|-----------------|-----------------|-----------------|
P P P P s
|-----------------|-----------------|-----------------|-----------------|
|-----------------|-----------------|-----------------|-----------------|
|-4-2---4-4-------|-4-2---4-4-------|-6-4---6-6-------|-6-4---6-6----6--|
|-----------------|-----------------|-----------------|-----------------|

|-7-7-7-5----7s---|-2--2--2--2--|-7-7-7-5----7s---|-2--2--5--------|
|------------7s---|-0--0--0--0--|------------7s---|-0--0--3--------|
|-9-9-9-7---------|-------------|-9-9-9-7---------|-------7--------|
|-----------------|-------------|-----------------|----------------|

|-2--2--5---------|
|-0--0--3---------|
|-------7---------|
|-----------------|
s
|-----------------|
|-----------------|
|-------7---------|
|-------4---------|

|-7--7--7--5-----------|-5--7s-2--2-|-7--7--7--5--------7--|-5---^--^---|
|----------------7--5--|----7s-0--0-|-------------------7--|------------|
|-9--9--9--7-----------|-7----------|-9--9--9--7-----------|-7---^--^---|
|----------------------|------------|----------------------|------------|
H ~~~~~~ H
|----------------------|------------|----------------------|------------|
|----------------------|-3----------|----------------------|-3----------|
|-9--9--9--7-----------|------------|-9--9--9--7-----------|------------|
|-6--6--6--4-----7--9--|----9-------|-6--6--6--4-----7--9--|-----^--^---|
H H
|*-----------------------*|-------------------------|
|*-5--5--5--3------------*|--5--5--5--3-------------|
|*-----------^-4---2---4-*|------------^-4---2---4--|
|*-----------------------*|-------------------------|
H P P P
|*-----------------------*|-------------------------|
|*-5--5--5--3------------*|-5--3-----5--3-----5--3--|
|*-----------------------*|-------------------------|
|*------------^-9--7--9--*|------9--------9---------|
P P P P P P
|-----------------|-----------------------------|
|-3-----3-----3---|-3-----------3---------3-----|
|---4-4---4-4---4-|-----4---4-------4--4------4-|
|-----------------|-----------------------------|
~~~~~~~~ ~~~~~~~
|-----------------|------------------------------|
|-----------------|-----------------------------|
|-----------------|-----------------------------|
|-7-----7---------|-9---7---9---7---------4---12-|

|------------------------|-10-12--12--12--12-10-5s7-|
|-3pp0--0--3pp0--0--3pp0-|-3-s5---5---5---5-s3------|
|------------------------|--------------------------|
|------------------------|--------------------------|
~~~~~~ P P s s
|----------------------------|--------------------|
|------------------------|-5--3---------------|
|------------------------|-------6------------|
|-------12--11---12--11---7--|---------7----7--7--|
P P P P P P
|--------------------|---------------------|
|-3------3------3----|--3------3------3----|
|---4-4----4-4----4--|----4-4----4-4----4--|
|--------------------|---------------------|
s s P H
|--------------------|---------------------|
|------3---3--5------|----------5----------|
|--------------------|---------------------|
|-9------9-------4-7-|-7--6-4-6----4-6--7--|
P P P P P P
|-----------------|-----------------|
|-3-----3-----3---|-3-----3-----3---|
|---4-4---4-4---4-|---4-4---4-4---4-|
|-----------------|-----------------|
s
|---------------------|-------------------|
|----------------+|-----------------|
|-----------------|-----------------|
|-9-11---12---14--14--|--14--12-9--9---9--|

|-2-2-2-5---------|-2-2-2-5---------|-2-2-2-5---------|-8-10-10-10-10-8-8-10-|
|-0-0-0-3---------|-0-0-0-3---------|-0-0-0-3---------|-3s5--5--5--5-s3-3s5--|
|-----------------|-----------------|-----------------|----------------------|
|-----------------|-----------------|-----------------|----------------------|
s ~~~~~~~~~ s ~~~~~~~s P ~~~~s
|-----------------|-----------------|-----------------|-----------------|
|-----------------|-----------------|-----------------|------0---0------|
|-2-4---2---------|-2-4---2---------|-----------------|--------2--------|
|-4-6---4---------|-4-6---4---------|-2+----2+-----2+-|-2+--0-----------|

|-2-2-2-5---------|-2-2-2-5---------|-2-2-2-5---------|-5------4----3---|
|-0-0-0-3---------|-0-0-0-3---------|-0-0-0-3---------|-3------2----1---|
|-----------------|-----------------|-----------------|-----------------|
|-----------------|-----------------|-----------------|-----------------|
s ~~~~~~~~~ s ~~~~~~ ~ ~~~~~~~~~~~~~s ~~~~~ ~~~ ~s
|-----------------|-----------------|-----------------|--------------------|
|-----------------|-----------------|-----------------|-----------------|
|-2-4---2---------|-2-4---2------4--|-7---------------|-11------11----11---|
|-4-6---4---------|-4-6---4------6--|-9---------------|-13------13----13---|
P P P ~~~ ~~~
|-------5-5---5-2-|-------5-5---5-2-|-------5-5---5-2-|-----5---5---5---|
|-----0-----0-----|-----0-----0-----|-----0-----0-----|-3-0---0-0---0---|
|-----------------|-----------------|-----------------|-----------------|
|-2+--------------|-2+--------------|-2+--------------|-----------------|
H s
|-----------|--------------|-----------|---------------|*
|-----------|-------2--2-3-|-----------|------2---3----|*
|-4---------|---4----------|-4---------|---4-----------|*
|-----------|--------------|-----------|---------------|*
s P P
|-----------|--------------|-----------|---------------|*
|-5---------|-------2--3---|-3-----3-2-|-3-------3-2-2-|*
|---4-------|---4-4--------|-----------|------------4--|*
|-----------|--------------|-----------|---------------|*
H s
|-----------|--------------|-----------|---------------|*
|-----------|-------2--2-3-|-----------|------2---3----|*
|-4---------|---4----------|-4---------|---4-----------|*
|-----------|--------------|-----------|---------------|*
s P P s
|-----------|--------------|-----------|---------------|
|-5-----3-2-|-3------3-2-2-|-----2-----|-3-------5-----|
|---4-------|-----------4--|-4---------|---------------|
|-----------|--------------|-----------|---------------|
s s s s s s ~~~~ ~~~~
|-----------|--------------|---------------|---------------|-------|----|
|-5---------|--------2--3--|-5---5---5--5--|---------------|-------|----|
|---4-4-----|---4-4--------|---------------|---------------|-------|----|
|-----------|--------------|---------------|-4---4---4--4--|-9-----|----|

|-2---------------|
|-0---------------|
|-----------------|
|-----------------|

 

Tab comments (0)
No comment yet :(
Need help, a tip to share, or simply want to talk about this song? Start the discussion!

You must be logged in to join the discussion
or Register

 

About this song

"Fuel" is the opening song from Metallica's ReLoad album. It stems from the thrill of fast driving and street racing. The song could also be applied to the fact that people like to drive their lives (like their cars) too fast. It seems to be one of James Hetfield's favorite songs as he later said before a concert played at an Oakland Raiders game, "We have to play Fuel...'cause it gets me pumped up." (taped on Some Kind of Monster)Another interpretation of this song Read more on Last.fm.