Enter Sandman (Intro) Uke tab by Metallica

Ukulele Tab without chords.

Add tab to your SongBook
Tablature / ChordsFont size: A- A A+

Don't know how to read a tab or a chord ? Check out these uke lessons:

Detailed guide to strumming and picking
How to read uke tabs
Reading chord diagrams

A|| ----------6---------------- ||
E||*--------8-----------8------*||
C||*--0-----------6--5---------*||
G|| --------------------------- ||


A|| ----------------------- ||
E||*--3-3-3-3-3-3-3-4------*||
C||*--0-0-0-0-0-0-0-1------*||
G|| ----------------------- ||


A|| ----------------------------||
E||*--3---3-3/8--8--8-(8)-------||
C||*--0---0-0-0--7--5-(5)-------||
G|| ----------------------------||


A||----------------------------||
E||--3---3-3/8--8--8-(8)-------||
C||--0---0-0-0--7--5-(5)-------||
G||----------------------------||


A||----------------------------||
E||--3---3-3/8--8--8-(8)-------||
C||--0---0-0-0--7--5-(5)-------||
G||----------------------------||


A|-------------------------------- ||
E|--6----6--6--6--5--6--5--6------*||
C|--3----0--3--0--2--3--2--3------*||
G|-------------------------------- ||

 

Tab comments (1)
You must be logged in to join the discussion
or Register

 

nloliscio avatar
flag for AR(ISO2) (Buenos Aires)
last note should be 0 instead of 3 and the notes of the chord are wrong
11 Jul 2016
About this song

"Enter Sandman" is a song by American metal band Metallica, featured as the opening track and lead single from their eponymous 1991 album. The song was produced by Bob Rock, and the music was written by Kirk Hammett, Lars Ulrich, and James Hetfield. Vocalist and guitarist Hetfield wrote the lyrics, which deal with nightmares.The single achieved gold certification for more than 500,000 copies shipped in the United States, spurring sales of over 15 million copies for Metallica and propelling Metallica to worldwide popularity. Read more on Last.fm.