...and Justice For All (Intro) Uke tab by Metallica

Ukulele Tab without chords.

Add tab to your SongBook
Tablature / ChordsFont size: A- A A+

Don't know how to read a tab or a chord ? Check out these uke lessons:

Detailed guide to strumming and picking
How to read uke tabs
Reading chord diagrams

A|---------------------------------------------|
E|--6---7-9--7-6--4---5-5---7-4--2---3-5--3-2--|
C|--6------6------4-------4------2------2------|
G|---------------------------------------------|



A|-----------------------------2-----------|
E|---0---2-2-0-2-0---0--2-2-0-2---3--------|
C|---1---------------0---------------------|
G|-----------------------------------------|

x4

 

Tab comments (2)
You must be logged in to join the discussion
or Register

 

Thahir avatar
flag for IN(ISO2) (Kannur)
aweeoooo????
22 Jan 2018
Thahir avatar
flag for IN(ISO2) (Kannur)
22 Jan 2018
About this song

...And Justice For All is the second track of Metallica's 1988 album ...And Justice For All.The song discusses how the powerful and rich can control the institution of justice, the price people are willing to pay for that justice, and how justice for all others has been desecrated. It is Metallica's fifth longest song, clocking in at 9:47 minutes. Only the 8th track on the album, "To Live Is to Die" at 9:49 , the song "The Outlaw Torn" (Load) at 9:49 (10:42 on "Unencumbered by Manufacturing Restrictions Version") Read more on Last.fm.