Am I Evil? Uke tab by Metallica

Ukulele Tab without chords.

Add tab to your SongBook
Tablature / ChordsFont size: A- A A+

Don't know how to read a tab or a chord ? Check out these uke lessons:

Detailed guide to strumming and picking
How to read uke tabs
Reading chord diagrams

A||-6-||-----------------|-5------------7---|---------------------|
E||-2-||-7-----------5-7-|-8-----------10--|-7---7-7-7-7---7-7-7-|
C||---||-4-----------2-4-|-5-----------7--|-4---4-4-4-4---4-4-4-|
G||---||-9-----------7-9-|-10-----------12--|-9---9-9-9-9---9-9-9-|

A|-----------------------|---------------------|-----------------------|
E|-7---7-7-7-5-5-5-5-5-5-|-7---7-7-7-7---7-7-7-|-7---7-7-7-5-5-5-5-5-5-|
C|-4---4-4-4-2-2-2-2-2-2-|-4---4-4-4-4---4-4-4-|-4---4-4-4-2-2-2-2-2-2-|
G|-9---9-9-9-7-7-7-7-7-7-|-9---9-9-9-9---9-9-9-|-9---9-9-9-7-7-7-7-7-7-|

A|*2-------------------|-----------9-9-9-9-9-9-|-8-------------------|
E|-0-------------------|-----------7-7-7-7-7-7-|-6-------------------|
C|-4-------------------|-----------11-11-11-11-11-11-|-10-------------------|
G|*--------------------|-----------------------|---------------------|

A|-----------3-3-3-3-3-3*|-2-------------------|-----------9-9-9-9-9-9-|
E|-----------1-1-1-1-1-1-|-0-------------------|-----------7-7-7-7-7-7-|
C|-----------5-5-5-5-5-5-|-4-------------------|-----------11-11-11-11-11-11-|
G|----------------------*|---------------------|-----------------------|

A|-8-------------------|-----------8--8--8--8--8--8--|-7-------------------|
E|-6-------------------|-----------------------------|---------------------
C|-10-------------------|-----------12--12--12--12--12--12--|-11-------------------|
G|---------------------|-----------10--10--10--10--10--10--|-9-------------------|

A|-----------9-9-9-9-9-9-|-8-------------------|-----------3-3-3-3-3-3-|
E|-----------7-7-7-7-7-7-|-6-------------------|-----------1-1-1-1-1-1-|
C|-----------11-11-11-11-11-11-|-10-------------------|-----------5-5-5-5-5-5-|
G|-----------------------|---------------------|-----------------------|

A|-2-------------------|-----------5-5-5-5-5-5-|*/7---7-7-7-7---7-7-7-|
E|-0-------------------|-----------------------|----------------------|
C|-4-------------------|-----------9-9-9-9-9-9-|--11---11-11-11-11---11-11-11-|
G|---------------------|-----------------------|*---------------------|

A|-7---7-7-7-5-5-5-5-5-5*|-------------8----|-7-----------------|
E|-----------------------|-0---7---6--------|-------------------|
C|-11---11-11-11-9-9-9-9-9-9-|------------------|-------------------|
G|----------------------*|------------------|-----4---3---10-----|
S S S
A|------------------------------------|
E|-----------3-----5------------------|
C|-4---5------------------------------|
G|-------------------------4----------|

A|-27--27--27--27--27--27--27--27--|-26--26--26--26--26--26--26--26--|
E|---3---3---3---3---3---3---3---3-|---2---2---2---2---2---2---2---2-|
C|---------------------------------|---------------------------------|
G|---------------------------------|---------------------------------|

A|-27--27--27--27--2----2----27--27--|-26--26--26--26--26--26--26------|
E|---3---3---3---3--25---25----3---3-|---2---2---2---2---2---2---2-----|
C|-----------------------------------|---------------------------------|
G|-----------------------------------|---------------------------------|

A|-5---10-------5-------7---------|
E|----------5-------7-------------|
C|--------------------------------|
G|--------------------------------|

A|*7-----5-----3---*|-2-2-2-2-5-2-2-0-2-2-2---1--0*|
E|------------------|-0-0-0-0-3-0-0---0-0-0--------|
C|-11-----9-----7----|---------------4---------5--4-|
G|*9-----7-----5---*|------------------------------|

A|*7--7777-7--7777--|-7--7777-5---5----|-7--7777-7--7777--|-7--7777-3---5---*|
E|-5--5555-5--5555--|-5--5555-3--------|-5--5555-5--5555--|-5--5555-----3----|
C|------------------|-------------9----|------------------|---------7--------|
G|*-----------------|------------------|------------------|-----------------*|

A|-7--7777-7--7777--|-----------------||*2--2222-2-2222--|-2--2222-2--5----|
E|-5--5555-5--5555--|-555-555-555-532-||-0--0000-0-0000--|-0--0000-0-------|
C|------------------|-----------------||-----------------|------------9----|
G|------------------|-----------------||*----------------|-----------------|

A|-2----------------|------------------|-5-------7--------|
E|-0----------------|------------------|-3-------5--------|
C|-4----------------|------------------|-7-------9--------|
G|------------------|------------------|------------------|
S S
A|-------------------|-----------------------|
E|------------5--2-2-|-----------------------|
C|-4-----------------|-----------------------|
G|--^^^^^^^^^4-------|-4------------4-8--9---|
S
A|---------------------------------------------|---------------------|
E|------------------------------------------|-5-----------2-------|
C|------------------------------------------|---------------------|
G|-8--9--8-4--8--9--11--11--11--9--8--9--8--4--|-----------------4---|

A|-----------------------------|--------------------------|
E|----------------5-----5--2---|-5--2---2-----------------|
C|-----------------------------|------4---4-2-4-2---2---2-|
G|-7--6--4--4-6-4-----4--------|------------------4-------|

A|-----9-----------------------|-----9-----------------------|
E|-------5--2---2--------------|-------5--2---2--------------|
C|-4----------4---4-2-2------2-|-4----------4---4-2-2------2-|
G|--^^-4-----------------------|--^^-4-----------------------|
S S S S
A|-----9-----------------------|---------------------------------|
E|-------5--2---2--------------|-------------22----24----------|
C|-4----------4---4-2-2------2-|-------------------------------|
G|--^^-4-----------------------|--16----17-----------------------|

A|-------------------------------------------|-------------------------------------------|
E|-------------------------------------|-------------------------------------|
C|-------------------------------------|-------------------------------------|
G|-12--11--9--7--9--11--12--11--9--7--9--11--|-12--11--9--7--9--11--12--11--9--7--9--11--|

A|-------------------------|---------------------------|
E|----2---0-0---0-0----0-0-|----0-0----0-0---0-0---0-0-|
C|-4-----------------------|---------------------------|
G|--^---4-----6-----7------|-9------7------6-----4-----|

A|-26--26--26--26--|-27--27--27--27--|-26--26--26--26--|-----------------|
E|---2---2---2---2-|---3---3---3---3-|---2---2---2---2-|-04--04--04--04--|
C|-----------------|-----------------|-----------------|-----------------|
G|-----------------|-----------------|-----------------|---4---4---4---4-|

A|-----------------|-----------------|*-------------------*|
E|-05--05--05--05--|-04--04--04--04--|----5----5----5----5-|
C|-----------------|-----------------|---------------------|
G|---5---5---5---5-|---4---4---4---4-|*9-5--9-5--9-5--9-5-*|

A|*-----------------------*|*-----------------------*|-------------------------|
E|----5----5----5----5-|----6----6----6----6-|----6----6----6----6-|
C|---------------------|---------------------|---------------------|
G|*10-5--10-5--10-5--10-5-*|*10-6--10-6--10-6--10-6-*|-11-6--11-6--11-6--11-6--|

A|*---------------------------*|-----26------26--|-----26------26--|
E|-------------------------|-04----2-04----2-|-04----2-04----2-|
C|-------------------------|-----------------|-----------------|
G|*11-7-4-11-7-4-11-7-4-11-7-4*|---4-------4-----|---4-------4-----|

A|-26------26------|-26------26------|-----------------|-----------------|
E|---2-------2-----|---2-------2-----|------25------25-|------25------25-|
C|-------2-------2-|-------2-------2-|---2-2-----2-2---|---2-2-----2-2---|
G|-----04------04--|-----04------04--|-04------04------|-04------04------|
S S
A|-----0-------0---|-------------------|------2-2------2-2------2-2------2-2-|
E|--25------25-----|--------------5----|-------------------------------------|
C|-2----14-2----14-|-------------------|-------------------------------------|
G|-----------------|-4--------------4--|-7-6------9-7------7-6------9-7------|

A|------2-2------2-2------2-2------2-2-|------2------2------2-----2----2-|
E|-------------------------------------|-----------------5----5-4---42---|
C|-------------------------------------|---------------------------------|
G|-7-6------9-7------7-6------9-7------|-7-6----6-4----4-----------------|

A|-------------------|----------------------|-------------------|
E|-2-----------------|-5--------5-2---2-----|--------------^====|
C|-2-4-2---2---------|--------------4---4-2-|-4-2---2-----------|
G|-------------------|----------------------|-----4------7------|
S
A|------------------|
E|--555-555-555-53--|
C|----------------4-|
G|------------------|

A|-----7---5-5------|-5-5---------5-7-5---*|-5---7----|
E|-0-0--------------|---------5-7-------7--|-----5----|
C|-----11---9-9------|-9-9------------------|-9--------|
G|------------------|---------------------*|----------|

 

Tab comments (0)
No comment yet :(
Need help, a tip to share, or simply want to talk about this song? Start the discussion!

You must be logged in to join the discussion
or Register

 

About this song

The song "Am I Evil?" was originally written by the band Diamond Head. It was made most famous by Metallica's cover of the song as a B-Side to "Creeping Death" (later released on Garage Inc.) and also featured in their live set throughout their career. Metallica's Lars Ulrich has gone on to say that this song is "the heaviest song that's ever been recorded." Diamond Head have stated that they are flattered by the cover, and that the royalties from it have enabled the band to continue. Read more on Last.fm.