Fasateen Uke tab by Mashrou’ Leila

Ukulele Tab without chords.

7/10
PrintAdd tab to your SongBook

Tablature / Chords (Full Song)

Font size: A- A A+

Album:  unknown
Key: unknownTablature (no chords)
# Use a Em Em shape for the first three measures and slide your finger up while keeping the shape. For the last bit use a B7 B7 shape, but play around with it because I can't quite replicate the sound on the uke.


A|---2--2--3--2----------2--2--3--2-------|
E|---3--3-------3--------3--3-------3-----|
C|-4-------------------4------------------|
G|----------------------------------------|


A|----2--2--3--2-------------0-----0------|
E|----3--3-------3--------2--------2------|
C|-0-------------------3-----------3------|
G|-----------------------------4---4------|

Uke tab by , 19 Jul 2020

Tab comments (0)

No comment yet :(
Need help, a tip to share, or simply want to talk about this song? Start the discussion!

Something to say?
Share your strumming patterns, chords or tips to play this tab! ;)

Top Tabs & Chords by Mashrou’ Leila, don't miss these songs!

About this song: Fasateen

No information about this song.

Did you cover Fasateen on your Ukulele? Share your work!
Submit a cover