Blue Bird (naruto Op 3) Uke tab by Ikimono Gakari

Ukulele Tab without chords.

9.8/10
PrintAdd tab to your SongBook

Tablature / Chords (Full Song)

Font size: A- A A+

Artist: 
Album:  unknown
Key: unknownTablature (no chords)
(INTRO)
A|----------0---------------0--2--0-2-4---|
E|------2-4----4--2-----2-4---------------|
C|----1---------------1-------------------|
G|----------------------------------------|
Habataitara modoranai to itte

A|--------0-----------4-2---4-2-----------|
E|----2-4----4--2---2-----2-----0-0--2-2--|
C|--1-------------------------------------|
G|----------------------------------------|
Mezashita no wa aoi aoi ano sora

(VERSE 1)
A|--------0---0-----------0-2-4-----------|
E|----2-4-------4--2-0--2-----------------|
C|--1-------1-----------------------------|
G|----------------------------------------|
"Kanashimi" wa mada oboerarezu

A|----------------------------0-----------|
E|----------0-2-0---0-0-0-2-4---4---------|
C|--1-1-1-2-------------------------------|
G|----------------------------------------|
"Setsuna sa" wa ima tsukami hajimeta

A|--------0---0-----------0-2-4-----------|
E|----2-4-------4--2-0--2-----------------|
C|--1-------1-----------------------------|
G|----------------------------------------|
Anata he to idaku kono kanjou mo

A|--------------0-------------------------|
E|----------------4-2--0-2-2--------------|
C|------1-1-1-2---------------------------|
G|----------------------------------------|
Ima "kotoba" ni kawatte iku

A|--------0-----------------2--2-0--------|
E|----2-4----5-4-5-4--4-4-5--------4-2----|
C|--1-------------------------------------|
G|----------------------------------------|
Michi naru sekai no yuma kara mezamete

A|------0-2-4-----0--2-4---4-7-5-4--------|
E|----2--------2--------------------------|
C|----------------------------------------|
G|----------------------------------------|
Kono hane wo hiroge tobitatsu

(CHORUS)
A|----------0---------------0--2--0-2-4---|
E|------2-4----4--2-----2-4---------------|
C|----1---------------1-------------------|
G|----------------------------------------|
Habataitara modoranai to itte

A|--------0-----------4-2---4-2-----------|
E|----2-4----4--2---2-----2-----0-0--2-2--|
C|--1-------------------------------------|
G|----------------------------------------|
Mezashita no wa shiroi shiroi ano kumo

A|--------0---------------0--2--0-2-4-----|
E|----2-4----4--2-----2-4-----------------|
C|--1---------------1---------------------|
G|----------------------------------------|
Tsukinuketara mitsukaru to shitte

A|--------0-----------4-2---4-2-----------|
E|----2-4----4--2---2-----2-----0-0--2-2--|
C|--1-------------------------------------|
G|----------------------------------------|
Furikiru hodo aoi aoi ano sora

A|---4-2---4-2-------------4-2---4-2---------|
E|-2-----2-----0-0-2-2---2-----2-----0-0-2-2-|
C|-------------------------------------------|
G|-------------------------------------------|
Aoi aoi ano sora, aoi aoi ano sora

(VERSE 2)
A|--------0---0-----------0-2-4-----------|
E|----2-4-------4--2-0--2-----------------|
C|--1-------1-----------------------------|
G|----------------------------------------|
Aisou tsukita you na oto de

A|----------------------------0-----------|
E|----------0-2-0---0-0-0-2-4---4---------|
C|--1-1-1-2-------------------------------|
G|----------------------------------------|
Sabireta furui mado wa kowareta

A|--------0---0-----------0-2-4-----------|
E|----2-4-------4--2-0--2-----------------|
C|--1-------1-----------------------------|
G|----------------------------------------|
Miakita kago wa hora sutete iku

A|--------------0-------------------------|
E|----------------4-2--0-0-2-2------------|
C|------1-1-1-2---------------------------|
G|----------------------------------------|
Furikaeru koto wa mou nai

A|--------0-----------------2--2-0--------|
E|----2-4----5-4-5-4--4-4-5--------4-2----|
C|--1-------------------------------------|
G|----------------------------------------|
Tsukanaru kodou ni kokyuu wo azukete

A|----0-2-4-----0--2-4---4-7-5-4----------|
E|--2--------2----------------------------|
C|----------------------------------------|
G|----------------------------------------|
Kono mado wo kette tobitatsu

(CHORUS)
A|----------0---------------0--2--0-2-4---|
E|------2-4----4--2-----2-4---------------|
C|----1---------------1-------------------|
G|----------------------------------------|
Kakedashitara te ni dekiru to itte

A|--------0-----------4-2---4-2-----------|
E|----2-4----4--2---2-----2-----0-0--2-2--|
C|--1-------------------------------------|
G|----------------------------------------|
Izanau no wa tooi tooi ano koe

A|--------0---------------0--0-2--0-2-4---|
E|----2-4----4--2-----2-4-----------------|
C|--1---------------1---------------------|
G|----------------------------------------|
Mabushi sugita anata no te mo nigitte

A|--------0-----------4-2---4-2-----------|
E|----2-4----4--2---2-----2-----0-0--2-2--|
C|--1-------------------------------------|
G|----------------------------------------|
Motomeru hodo aoi aoi ano sora

(BRIDGE)
A|------4-------------4-------------------|
E|----2---2-2-0-2---2---2-2-2-0-2---------|
C|----------------------------------------|
G|----------------------------------------|
Ochite iku to, wakatte ita

A|-------------2---2---2-4-4-4-2-0-2-4----|
E|--2-5-2-5--5---5------------------------|
C|----------------------------------------|
G|----------------------------------------|
Soredemo hikari wo oitsuzukete iku yo

(CHORUS)
A|----------0---------------0--2--0-2-4---|
E|------2-4----4--2-----2-4---------------|
C|----1---------------1-------------------|
G|----------------------------------------|
Habataitara modoranai to itte

A|--------0-----------4-2---4-2-----------|
E|----2-4----4--2---2-----2-----0-0--2-2--|
C|--1-------------------------------------|
G|----------------------------------------|
Sagashita no wa shiroi shiroi ano kumo

A|--------0---------------0--2--0-2-4-----|
E|----2-4----4--2-----2-4-----------------|
C|--1---------------1---------------------|
G|----------------------------------------|
Tsukinuketara mitsukaru to shitte

A|--------0-----------4-2---4-2-----------|
E|----2-4----4--2---2-----2-----0-0--2-2--|
C|--1-------------------------------------|
G|----------------------------------------|
Furikiru hodo aoi aoi ano sora

(OUTRO)
A|---4-2---4-2-------------4-2---4-2---------|
E|-2-----2-----0-0-2-2---2-----2-----0-0-2-2-|
C|-------------------------------------------|
G|-------------------------------------------|
Aoi aoi ano sora, aoi aoi ano sora

Uke tab by , 20 Jul 2020

Tab comments (2)

Something to say?
Share your strumming patterns, chords or tips to play this tab! ;)
Filter by:
LiGht_off29 avatar
Dattebayo!!!
02 Feb 2021
Comment
emokidd56 avatar
This is great thank you :)
08 Sep 2020
Comment

Top Tabs & Chords by Ikimono Gakari, don't miss these songs!

About this song: Blue Bird (naruto Op 3)

No information about this song.

Did you cover Blue Bird (naruto Op 3) on your Ukulele? Share your work!
Submit a cover